Oops, an error
Loading. Please wait.

Conspiracy Of One Bass Tab

version 2
version 2

Album

Whole song

Interactive

391 views 1 this week
no commentswrite comment
1 2 3 4 5
please rate
add to favorites
launch autoscroll
font size
0
reset
guitar tuner
Tab Pro tools
  • play this tab
  • loop segment
  • change instrument
  • show fretboard
  • metronome
Autoscroll
slow
fast
+/-
esc
set tempo
stop
Contributor
++++++++++++++++++++++++++++++++++++
| The Offspring- Conspiracy Of One |
++++++++++++++++++++++++++++++++++++

Tuning: EADG

Intro
1.
G|--------------------------------|
D|--------------------------------|
A|--55-355-355-313-55-355-355-313-|
E|--------------------------------|

Verse
"Red over white..." (1 not 11)
2.
G|----------------------------------------------------|
D|----------------------------------------------------|
A|-555-785----33333333----1111111111-3-55-355-355-313-|
E|---------11----------11-----------------------------|

"Bring on the night..."
3.
G|------------------------------------------------|
D|------------------------------------------------|
A|-555-785----33333333----1111111111-3-55-355-35x-|
E|---------11----------11-------------------------|

Chorus
"Nobody wins..."
4.
G|--------------------------------------------------------|
D|--------------------------------------------------------|
A|-555-78-333--3-555-78-333--3-555-78-333--3-111111111111-|
E|------------3-------------3-------------3---------------|

Outro
5.
G|--------------------------------|
D|--------------------------------|
A|--55-355-355-313-55-355-355-313-|
E|--------------------------------|

Verse
"Bring on the night..."
6.
G|----------------------------------------------------|
D|----------------------------------------------------|
A|-555-785----33333333----1111111111-3-55-355-355-313-|
E|---------11----------11-----------------------------|

"Red over white..."
7.
G|------------------------------------------------|
D|------------------------------------------------|
A|-555-785----33333333----1111111111-3-55-355-35x-|
E|---------11----------11-------------------------|

Chorus
"Nobody wins..."
8.
G|--------------------------------------------------------|
D|--------------------------------------------------------|
A|-555-78-333--3-555-78-333--3-555-78-333--3-111111111111-|--x2
E|------------3-------------3-------------3---------------|

Break
9.
G|--------------------------------------|
D|-----------------------------------5~-|
A|-5-5-5-5-5-7-7-8~----1-1-1-1-1--------|--x2
E|-------------------------------1-3----|

10.
G|-------------------------------------------------------------|
D|-------------------------53-------------------------55555555-|
A|-5555555-77-888-1111111-----5555555-77-888-11111111----------|
E|-----------------------13------------------------------------|

Chorus
"Nobody wins..."
11.
G|--------------------------------------------------------|
D|--------------------------------------------------------|
A|-555-78-333--3-555-78-333--3-555-78-333--3-111111111111-|--x2
E|------------3-------------3-------------3---------------|

Outro
12.
G|------------|
D|------------|
A|-55-355-35x-|
E|------------|

Lyrics:

Red over white
It's one last fatal scene
Brought on by someone unseen
Moving on their own
Bring on the night
And bring us all to our knees
All are gone and none agreed
One who acts alone

Nobody wins
Nobody hears us fall
Nobody wins
When it's done
Conspiracy of one

+++++++++++++++++++++++++++++++++
| RaiLeff                       |
| Underground__Dora@Hotmail.Com |
+++++++++++++++++++++++++++++++++
comments
We did not receive enough feedback on this tab! Please rate:
print report bad tab
1 2 3 4 5
I want to post or [tab]
guest
You may want to rate the tab now too:
select rating
Please do not post tabs as comments. Select "correction" instead!