Oops, an error
Loading. Please wait.

Cool To Hate Tab

version 2
version 2

Whole song

Interactive

790 views 1 this week
1 commentread comment
1 2 3 4 5
please rate
add to favorites
launch autoscroll
font size
0
reset
how to read this tab
guitar tuner
Tab Pro tools
  • play this tab
  • loop segment
  • change instrument
  • show fretboard
  • metronome
×
Best way to learn
"Cool To Hate"
Autoscroll
slow
fast
+/-
esc
set tempo
stop
Contributor
-------------------------------------------------------------------------------
                             Cool To Hate - The Offspring
-------------------------------------------------------------------------------
Tabbed by: Ryan Armstrong
Email:

Tuning: Standard
  
This is a realy cool song of the offsprings, your hands may seasup half way 
through so take it easy.

  Intro Verse
e|------------------------------------------------------------|
B|------------------------------------------------------------|
G|10-10----10\8-8---8/10-10----10\8-8---8/10-10----10\8-8---8/|
D|10-10-10-10\8-8-8-8/10-10-10-10\8-8-8-8/10-10-10-10\8-8-8-8/|
A|-8--8-10--8\6-6-8-6/-8--8-10--8\6-6-8-6/-8--8-10--8\6-6-8-6/|
E|-------8--------6----------8--------6----------8--------6---|

  Continued
e|----------------|
B|----------------|
G|10-10----10/8-8-|
D|10-10-10-10/8-8-|
A|-8--8-10--8/6-6-|
E|-------8--------|

  Pre chorus
e|-----------------------------------------------------|
B|-----------------------------------------------------|
G|---8/10-----10\8----8\6----6/8----8/10-----10/8----8-|
D|-8-8/10--10-10\8--8-8\6--6-6/8--8-8/10--10-10/8--8-8-|
A|-8-6/-8--10--8\6--8-6\4--6-4/6--8-6/-8--10--8/6--8-6-|
E|-6--------8-------6------4------6--------8-------6---|

  Continue
e|-----------------------------------------|
B|-----------------------------------------|
G|-----------------------------------------|
D|-----------------------------------------|
A|-8-8-8-8-8-8-8-8-10-10-10-10-10-10-10-10-|
E|-6-6-6-6-6-6-6-6--8--8--8--8--8--8--8--8-|
PM . . . . . . . .  .  .  .  .  .  .  .  .

  Chorus
e|----------------------------------------------------|
B|----------------------------------------------------|
G|-10-10-10-------8-8-8-------6-6-6-------8-8-8-------|
D|-10-10-10-6-6-6-8-8-8-8-8-8-6-6-6-6-6-6-8-8-8-8-8-8-|
A|--8--8--8-6-6-6-6-6-6-8-8-8-4-4-4-6-6-6-6-6-6-8-8-8-|
E|----------4-4-4-------6-6-6-------4-4-4-------6-6-6-|

  Continued
e|----------------------------------------------------------|
B|----------------------------------------------------------|
G|-10-10-10-------8-8-8-------6-6-6-------8-8-8-------6-6-6-|
D|-10-10-10-6-6-6-8-8-8-8-8-8-6-6-6-6-6-6-8-8-8-8-8-8-6-6-6-|
A|--8--8--8-6-6-6-6-6-6-8-8-8-4-4-4-6-6-6-6-6-6-8-8-8-4-4-4-|
E|----------4-4-4-------6-6-6-------4-4-4-------6-6-6-------|

  Continued
e|-------------------------------------------|
B|-------------------------------------------|
G|-------8-8-8-------6-6-6-------8-8-8-------|
D|-6-6-6-8-8-8-8-8-8-6-6-6-6-6-6-8-8-8-8-8-8-|
A|-6-6-6-6-6-6-8-8-8-4-4-4-6-6-6-6-6-6-8-8-8-|
E|-4-4-4-------6-6-6-------4-4-4-------6-6-6-|

  Verse
e|------------------------------------------------------------|
B|------------------------------------------------------------|
G|10-10----10\8-8---8/10-10----10\8-8---8/10-10----10\8-8---8/|
D|10-10-10-10\8-8-8-8/10-10-10-10\8-8-8-8/10-10-10-10\8-8-8-8/|
A|-8--8-10--8\6-6-8-6/-8--8-10--8\6-6-8-6/-8--8-10--8\6-6-8-6/|
E|-------8--------6----------8--------6----------8--------6---|

  Continued
e|--------------------------------------------------------|
B|--------------------------------------------------------|
G|10-10----10/8-8---8/10-10----10\8-8---8/10-10----10\8-8-|
D|10-10-10-10/8-8-8-8/10-10-10-10\8-8-8-8/10-10-10-10\8-8-|
A|-8--8-10--8/6-6-8-6/-8--8-10--8\6-6-8-6/-8--8-10--8\6-6-|
E|-------8--------6----------8--------6----------8--------|

  Pre chorus
e|-----------------------------------------------------|
B|-----------------------------------------------------|
G|---8/10-----10\8----8\6----6/8----8/10-----10/8----8-|
D|-8-8/10--10-10\8--8-8\6--6-6/8--8-8/10--10-10/8--8-8-|
A|-8-6/-8--10--8\6--8-6\4--6-4/6--8-6/-8--10--8/6--8-6-|
E|-6--------8-------6------4------6--------8-------6---|

  Continued
e|-----------------------------------------|
B|-----------------------------------------|
G|-----------------------------------------|
D|-----------------------------------------|
A|-8-8-8-8-8-8-8-8-10-10-10-10-10-10-10-10-|
E|-6-6-6-6-6-6-6-6--8--8--8--8--8--8--8--8-|
PM . . . . . . . .  .  .  .  .  .  .  .  .

  Chorus
e|----------------------------------------------------|
B|----------------------------------------------------|
G|-10-10-10-------8-8-8-------6-6-6-------8-8-8-------|
D|-10-10-10-6-6-6-8-8-8-8-8-8-6-6-6-6-6-6-8-8-8-8-8-8-|
A|--8--8--8-6-6-6-6-6-6-8-8-8-4-4-4-6-6-6-6-6-6-8-8-8-|
E|----------4-4-4-------6-6-6-------4-4-4-------6-6-6-|

  Continued
e|----------------------------------------------------------|
B|----------------------------------------------------------|
G|-10-10-10-------8-8-8-------6-6-6-------8-8-8-------6-6-6-|
D|-10-10-10-6-6-6-8-8-8-8-8-8-6-6-6-6-6-6-8-8-8-8-8-8-6-6-6-|
A|--8--8--8-6-6-6-6-6-6-8-8-8-4-4-4-6-6-6-6-6-6-8-8-8-4-4-4-|
E|----------4-4-4-------6-6-6-------4-4-4-------6-6-6-------|

  Continued
e|-------------------------------------------|
B|-------------------------------------------|
G|-------8-8-8-------6-6-6-------8-8-8-------|
D|-6-6-6-8-8-8-8-8-8-6-6-6-6-6-6-8-8-8-8-8-8-|
A|-6-6-6-6-6-6-8-8-8-4-4-4-6-6-6-6-6-6-8-8-8-|
E|-4-4-4-------6-6-6-------4-4-4-------6-6-6-|

  Bridge
e|---------------------------------------------------------|
B|---------------------------------------------------------|
G|-10-10-x-10-10-x-8-8-x-8-8-x-10-10-x-10-10-x-8-8-x-8-8-x-|
D|-10-10-x-10-10-x-8-8-x-8-8-x-10-10-x-10-10-x-8-8-x-8-8-x-|
A|--8--8-x--8--8-x-6-6-x-6-6-x--8--8-x--8--8-x-6-6-x-6-6-x-|
E|---------------------------------------------------------|

  Continued
e|--------------------------|
B|--------------------------|
G|-10-10-x-10-10-x-8-8-x-8-8|
D|-10-10-x-10-10-x-8-8-x-8-8|
A|--8--8-x--8--8-x-6-6-x-6-6|
E|--------------------------|

  Continued
e|-----------------------------------------|
B|-----------------------------------------|
G|-----------------------------------------|
D|-----------------------------------------|
A|-8-8-8-8-8-8-8-8-10-10-10-10-10-10-10-10-|
E|-6-6-6-6-6-6-6-6--8--8--8--8--8--8--8--8-|
PM . . . . . . . .  .  .  .  .  .  .  .  .

  Continued
e|---------------------------------------------------------------------|
B|---------------------------------------------------------------------|
G|---------------------------------------------------------------------|
D|-10-10-10-10---------8-8-8-8---------6-6-6-6---------8-8-8-8---------|
A|--8--8--8--8-6-6-6-6-6-6-6-6-8-8-8-8-4-4-4-4-6-6-6-6-6-6-6-6-8-8-8-8-|
E|-------------4-4-4-4---------6-6-6-6---------4-4-4-4---------6-6-6-6-|
PM  .  .  .  . . . . . . . . . . . . . . . . . . . . . . . . . . . . .

  Continued
e|---------------------------------------------------------------------|
B|---------------------------------------------------------------------|
G|---------------------------------------------------------------------|
D|-10-10-10-10---------8-8-8-8---------6-6-6-6---------8-8-8-8---------|
A|--8--8--8--8-6-6-6-6-6-6-6-6-8-8-8-8-4-4-4-4-6-6-6-6-6-6-6-6-8-8-8-8-|
E|-------------4-4-4-4---------6-6-6-6---------4-4-4-4---------6-6-6-6-|
PM  .  .  .  . . . . . . . . . . . . . . . . . . . . . . . . . . . . .

  Continued
e|-----------------------------------------------------------------|
B|-----------------------------------------------------------------|
G|-----------------------------------------------------------------|
D|-6-6-6-6---------8-8-8-8---------6-6-6-6---------8-8-8-8---------|
A|-4-4-4-4-6-6-6-6-6-6-6-6-8-8-8-8-4-4-4-4-6-6-6-6-6-6-6-6-8-8-8-8-|
E|---------4-4-4-4---------6-6-6-6---------4-4-4-4---------6-6-6-6-|
PM . . . . . . . . . . . . . . . . . . . . . . . . . . . . . . . .

  Continued
e|---------------------|
B|---------------------|
G|-10-----10----8---10-|
D|-10--10-10-10-8-8-10-|
A|--8---8--8--8-6-6--8-|
E|---------------------|

  Pre chorus
e|-----------------------------------------------------|
B|-----------------------------------------------------|
G|---8/10-----10\8----8\6----6/8----8/10-----10/8----8-|
D|-8-8/10--10-10\8--8-8\6--6-6/8--8-8/10--10-10/8--8-8-|
A|-8-6/-8--10--8\6--8-6\4--6-4/6--8-6/-8--10--8/6--8-6-|
E|-6--------8-------6------4------6--------8-------6---|

  Continued
e|-----------------------------------------|
B|-----------------------------------------|
G|-----------------------------------------|
D|-----------------------------------------|
A|-8-8-8-8-8-8-8-8-10-10-10-10-10-10-10-10-|
E|-6-6-6-6-6-6-6-6--8--8--8--8--8--8--8--8-|
PM . . . . . . . .  .  .  .  .  .  .  .  . 

  Chorus
e|----------------------------------------------------|
B|----------------------------------------------------|
G|-10-10-10-------8-8-8-------6-6-6-------8-8-8-------|
D|-10-10-10-6-6-6-8-8-8-8-8-8-6-6-6-6-6-6-8-8-8-8-8-8-|
A|--8--8--8-6-6-6-6-6-6-8-8-8-4-4-4-6-6-6-6-6-6-8-8-8-|
E|----------4-4-4-------6-6-6-------4-4-4-------6-6-6-|

  Continued
e|----------------------------------------------------------|
B|----------------------------------------------------------|
G|-10-10-10-------8-8-8-------6-6-6-------8-8-8-------6-6-6-|
D|-10-10-10-6-6-6-8-8-8-8-8-8-6-6-6-6-6-6-8-8-8-8-8-8-6-6-6-|
A|--8--8--8-6-6-6-6-6-6-8-8-8-4-4-4-6-6-6-6-6-6-8-8-8-4-4-4-|
E|----------4-4-4-------6-6-6-------4-4-4-------6-6-6-------|

  Continued
e|-----------------------------------------------|
B|-----------------------------------------------|
G|-------8-8-8-------6-6-6-------8-8-8-------10\-|
D|-6-6-6-8-8-8-8-8-8-6-6-6-6-6-6-8-8-8-8-8-8-10\-|
A|-6-6-6-6-6-6-8-8-8-4-4-4-6-6-6-6-6-6-8-8-8--8\-|
E|-4-4-4-------6-6-6-------4-4-4-------6-6-6-----|

Thats it hope you enjoyed it i'll see ya later.

| /  slide up
| \  slide down
| h  hammer-on
| p  pull-off
| ~  vibrato
| +  harmonic
| x  Mute note
===============================================================================
comments
We did not receive enough feedback on this tab! Please rate:
print report bad tab
1 2 3 4 5
1 comment total.
0 reply
19371 wrote on August 24 2007, 05:06 pm

Nice tab. The offspring rock too much. Thanx for this!

I want to post or [tab]
guest
You may want to rate the tab now too:
select rating
Please do not post tabs as comments. Select "correction" instead!