Oops, an error
Loading. Please wait.

Crossroads Bass Tab

version 1
version 1

Whole song

Interactive

730 views 1 this week
no commentswrite comment
1 2 3 4 5
please rate
add to favorites
launch autoscroll
font size
0
reset
guitar tuner
Tab Pro tools
  • play this tab
  • loop segment
  • change instrument
  • show fretboard
  • metronome
×
Best way to learn
"Crossroads"
Autoscroll
slow
fast
+/-
esc
set tempo
stop
#----------------------------------PLEASE NOTE---------------------------------#
#This file is the author's own work and represents their interpretation of the-#
#song. You may only use this file for private study, scholarship, or research.-#
#------------------------------------------------------------------------------#

Offspring - Crossroads
Submitted By: dexterkwasserron
EMail: dexterkwasserron@charter.net
Album: Offspring
Transcribed by: Pat


there was already a tab here but it was wrong and missing parts and i just couldnt stand it
so here it is right and complete so enjoy

INTRO
------------------------------------------------------------------------------
-12--------12/0--------0------------------------------------------------------
------------------------------------------------------------------------------
------------------------------------------------------------------------------
                                                                              

RIFF 1                                             END 1     END 2
-7-7-7-7-7/9-10-10-14-14-14-13-13-13-9-9-9-9-9-9-|------|---------------------
-0-0-0-0-0-0-0--0--0--0--0--0--0--0--0-0-0-0-0-0-|------|----------------7----
-------------------------------------------------|-1-0--|1-1-1-1-1-1-1-1------
-------------------------------------------------|------|---------------------
                                                                              

VERSE
------------------------------------------------------------------------------
------------------------------------------------------------------------------
-5-8-7-6-5-8-7-6-3-3-3-3-3-0-0-0-0-0-1-1-1-1-1-----------0-0-0-0-0-0-0-0-0-0--
-----------------------------------------------3-3-3-3-3----------------------
                                                                              

CHORUS (X2)
------------------------------------------------------------------------------
-----------------------3-3-3--------------------------------------------------
-------3-3-3-5-5-5-5-5-------3-3-3-5-5-5-5-5----------------------------------
-1-1-1------------------------------------------------------------------------
                                                                              

ALTERNATE VERSE (DURING SOLO)
------------------------------------------------------------------------------
------------------------------------------------------------------------------
-5-8-7-6-5-8-7-6-3-3-3-3-3-0-0-0-0-0-1-1-1-1-1-10-10-10-10-10-12-12-12-12-12--
------------------------------------------------------------------------------
                                                                              

BRIDGE 1
------------------------------------------------------------------------------
------------------------------------------------------------------------------
-8-8-10-8-7-5-8-8-8---5-8-8-10-8-7-5-8----------------------------------------
--------------------8------------------8--------------------------------------
                                                                              

BRIDGE 2
------------------------------------------------------------------------------
------------------------------------------------------------------------------
-5-5-5-5-5-5-5-5-5-5-5---------5-5-8-7---3-5----------------------------------
-----------------------5-5-5-----------5--------------------------------------

INTRO
RIFF 1
VERSE
CHORUS
VERSE 
CHORUS
ALTERNATE VERSE
BRIDGE 1
BRIDGE 2
RIFF 1
VERSE
CHORUS


Downloaded from www.taborama.com

================================================================================



Offspring - Crossroads
Tabbed By: Ryan
EMail: RYANSTORER4917@msn.com



Intro. Part 1 
G|--------------------------------------------------------------------- 
D|----12--------------------------------------------------------------- 
A|-----------------12/5-------5>--------------------------------------- 
E|--------------------------------------------------------------------- 

Intro. Part 2 (2x)(During guitar breaks) 
G|----77----9999---10/14>--12>--9>-------L-----------7>---------------- 
D|----00----0000----0000----0>--0>-------A----------------------------- 
A|----55----7777----8/12>--12>--7>--5--5-S----5>----------------------- 
E|---------------------------------------T----------------------------- 

Verse 
G|--------------------------------------------------------------------- 
D|--------------------------------------------------------------------- 
A|---5876-5876----3>----------1>--------------------------------------- 
E|----------------------5>---------3>------5>-------------------------- 

Chorus (4x) 
G|--------------------------------------------------------------------- 
D|---33---------------------------------------------------------------- 
A|---------3333------5555555------------------------------------------- 
E|--------------------------------------------------------------------- 

Bridge Part 1 
G|--------------------------------------------------------------------- 
D|---3--x--532-----------------------3--x---532------------------------ 
A|---------------3----5---x---535----------------3-----5--x---3-------- 
E|--------------------------------------------------------------------- 

Bridge Part 2 (2x) 
G|--------------------------------------------------------------------- 
D|------------------------32------------------------------------------- 
A|-----5>----------33-------------535---------------------------------- 
E|--------------------------------------------------------------------- 

Bridge Part 3 (2x) 
G|--------------------------------------------------------------------- 
D|-------332----------3322-----------110------------1100--------------- 
A|---33--------333--------------11-----------111----------------------- 
E|--------------------------------------------------------------------- 

Order: 
Intro. Part 1 
Intro. Part 2 
Verse (2x) 
Chorus 
Verse (during guitar solo) 
Chorus 
Bridge Part 1 
Bridge Part 2 
Bridge Part 1 
Bridge Part 2 
Bridge Part 3 
Intro. Part 2 
Verse (2x) 
Chorus
comments
We did not receive enough feedback on this tab! Please rate:
print report bad tab
1 2 3 4 5
I want to post or [tab]
guest
You may want to rate the tab now too:
select rating
Please do not post tabs as comments. Select "correction" instead!