Oops, an error
Loading. Please wait.

Dammit I Changed Again Tab

version 3
version 3
458 views 1 this week
2 commentsread comments
1 2 3 4 5
accurate
x 3
add to favorites
launch autoscroll
font size
0
reset
how to read this tab
guitar tuner
Tab Pro tools
  • play this tab
  • loop segment
  • change instrument
  • show fretboard
  • metronome
×
Best way to learn
"Dammit I Changed Again"
Autoscroll
slow
fast
+/-
esc
set tempo
stop


Date: thrus, 22 Feb 2001 07:25:13 -0500
From: Samuel (adio2002@netzero.net)
Subject: o/offspring/dammit_i_changed_again ver 3.tab
Album: conspercy of one 
Artist: offspring
 
1.Intro,just a single strike and bass to the end.      
E-|----------|
B-|----------|
G-|----------|
D-|--3--let--|                   
A-|--3--ring-|                  
E-|--1-------|                          

2.Main riff
   G#       C#       D#       A#   
E-|--------------------------------------|
B-|--------------------------------------|                                                               
G-|--------------------------------------| play this riff twice, 
D-|-----6-5-6---6-5-6---6-5-6-8-6-5------| but the 2ed time with 
A-|-8-8-------4-------6-------------6-8--| out the |8-8-| in the beg  
E-|--------------------------------------| 

3.Verse; it is played only by bass guitar. But, the end of this part play e-
lectric gitar, too, it's there:
E-|--------------|
B-|--------------|
G-|--------------|
D-|66666668------|
A-|66666666------|
E-|4444444-------|   

4.Then comes the chorus.
E-|-------------------------------------|  im not quite sure on the tempo but i 
B-|-------------------------------------|  think its 4 beats per chord if im  
G-|-10101010-6666------8888-------------|  wrong just listin to the cd
D-|-10101010-6666-6666-8888-------------|  play twice then twice again with the  
A-|--8-8-8-8-4444-6666-6666-------------|  riff twice
E-|---------------4444------------------|

5.next verse is the same as the chorus but w/plam mute
6.Chorus again with chords first then chords w/ main riff
7.Then the interlude,it is a clean tone-riff played 4 times i think
 
E-|------------------------------------------------------|
B-|------------------------------------------------------|
G-|------------------------------------------------------|
D-|--10-10-10-10-11-11-11-11-10-10-10-10-8-8-8-8---------|   
A-|----8--8--8-----8--8--8--8--8--8--6--6-6-6-6-6--------|
E-|------------------------------------------------------|
   something like that

8.Then chorus twice again then w/ Main riff 4 times 
                          
                                  THE END

good luck! any changes, death threats, or anything else e-mail me at adio2002@netzero.net




comments
We did not receive enough feedback on this tab! Please rate:
print report bad tab
1 2 3 4 5
2 comments total.
0 reply
Nothing 2 Gein wrote on January 6 2002, 12:00 am

Intro goes like this

e|----------------------------------------------|
B|----------------------------------------------|
G|--7--10-9-10---10-9-10----10-9-10-12-10-9-----|
D|--x--x--x-x--8-x--x-x--10-x--x-x--xx-x--x-10--|
A|--5--8--7-8--x-8--7-8--x--8--7-8--10-8--7-x---|
E|-------------6---------8------------------8---|

otherwise, good tab

0 reply
Nothing 2 Gein wrote on January 6 2002, 12:00 am

man i hate having to make comments in a small box, makes it very hard to write tabs

I want to post or [tab]
guest
You may want to rate the tab now too:
select rating
Please do not post tabs as comments. Select "correction" instead!