Oops, an error
Loading. Please wait.

Dammit I Changed Again Tab

version 6
version 6
1,393 views 6 this week
no commentswrite comment
1 2 3 4 5
please rate
add to favorites
launch autoscroll
font size
0
reset
how to read this tab
guitar tuner
Tab Pro tools
  • play this tab
  • loop segment
  • change instrument
  • show fretboard
  • metronome
×
Best way to learn
"Dammit I Changed Again"
Autoscroll
slow
fast
+/-
esc
set tempo
stop
Contributor
I am 100% sure that this version is right... I have added in the parts of the second
guitar in which people have missed and the bass guitar tabs in this as well. 

Tuning: Guitar 1- Standard EADGBE (Dexter)
        Guitar 2- Standard EADGBE (Noodles)
        Guitar 3- Standard EADG   (Greg)
        ^^ Guitar 3 is the Bass

Intro X2-(0:00-0:11)

Guitar 2 (Noodles)
E|-------------------------------------------------------------------------|
B|-------------------------------------------------------------------------|
G|-------------------------------------------------------------------------|
D|-3-----------------------------------------------------------------------|
A|-3-----------------------------------------------------------------XXXXXX|
E|-1-----------------------------------------------------------------------|
  ^Let Ring- X= Pick Scrape, scrape after second time through bass

Guitar 3- Bass- (Greg)
G|-------------------------------------------------------------------------|
D|-------------------------------------------------------------------------|
A|-------------------4-4-4-4-4-4-4-4-----------------6-6-6-6-6-6-6-6-------|
E|---1-1-1-1-1-1-1-1-----------------4-4-4-4-4-4-4-4-----------------------|

Pre- Chorus X2-(0:12-0:22)

Guitar 1 (Dexter)
E|-------------------------------------------------------------------------|
B|-------------------------------------------------------------------------|
G|-------------------------------------------------------------------------|
D|-10-10-10-10-10-10-10-10-6-6-6-6-6-6-6-6-----------------8-8-8-8-8-8-8-8-|
A|-8--8--8--8--8--8--8--8--4-4-4-4-4-4-4-4-6-6-6-6-6-6-6-6-6-6-6-6-6-6-6-6-|
E|-----------------------------------------4-4-4-4-4-4-4-4-----------------|

Guitar 2 (Noodles)
E|-------------------------------------------------------------------------|
B|-------------------------------------------------------------------------|
G|-------------------------------------------------------------------------|
D|-5-8-7-8---8-7-8---8-7-8-10-8-7------------------------------------------|
A|---------6-------8--------------8----------------------------------------|
E|-------------------------------------------------------------------------|

Guitar 3- Bass- (Greg)
G|-------------------------------------------------------------------------|
D|-------------------------------------------------------------------------|
A|-8-8-8-8-8-8-8-8-4-4-4-4-4-4-4-4-----------------6-6-6-6-6-6-6-6---------|
E|---------------------------------4-4-4-4-4-4-4-4-------------------------|

Verse X2- (0:22-0:32)

Guitar 3- Bass- (Greg)
G|-------------------------------------------------------------------------|
D|-------------------------------------------------------------------------|
A|-----------------4-4-4-4-4-4-4-4-4-----------------6-6-6-6-6-6-6-6-------|
E|-1-1-1-1-1-1-1-1-------------------4-4-4-4-4-4-4-4-----------------------|

Guitar 2 (Noodles)
E|-------------------------------------------------------------------------|
B|-------------------------------------------------------------------------|
G|--------------------------------------------------------8-8-8-8-8-8-8-8-8|
D|--------------------------------------------------------6-6-6-6-6-6-6-6-6|
A|--------------------------------------------------------6-6-6-6-6-6-6-6-6|
E|-------------------------------------------------------------------------|
  ^^^ Play this part after the second verse of the bass it done

Chorus X2- (0:33-0:44)

Guitar 1 (Dexter)
E|-------------------------------------------------------------------------|
B|-------------------------------------------------------------------------|
G|-------------------------------------------------------------------------|
D|-10-10-10-10-10-10-10-10-6-6-6-6-6-6-6-6-----------------8-8-8-8-8-8-8-8-|
A|-8--8--8--8--8--8--8--8--4-4-4-4-4-4-4-4-6-6-6-6-6-6-6-6-6-6-6-6-6-6-6-6-|
E|-----------------------------------------4-4-4-4-4-4-4-4-----------------|

Guitar 3- Bass- (Greg)
G|-------------------------------------------------------------------------|
D|-------------------------------------------------------------------------|
A|-8-8-8-8-8-8-8-8-4-4-4-4-4-4-4-4-----------------6-6-6-6-6-6-6-6---------|
E|---------------------------------4-4-4-4-4-4-4-4-------------------------|

Pre- Chorus X2-(0:45-0:55)

Guitar 1 (Dexter)
E|-------------------------------------------------------------------------|
B|-------------------------------------------------------------------------|
G|-------------------------------------------------------------------------|
D|-10-10-10-10-10-10-10-10-6-6-6-6-6-6-6-6-----------------8-8-8-8-8-8-8-8-|
A|-8--8--8--8--8--8--8--8--4-4-4-4-4-4-4-4-6-6-6-6-6-6-6-6-6-6-6-6-6-6-6-6-|
E|-----------------------------------------4-4-4-4-4-4-4-4-----------------|

Guitar 2 (Noodles)
E|-------------------------------------------------------------------------|
B|-------------------------------------------------------------------------|
G|-------------------------------------------------------------------------|
D|-5-8-7-8---8-7-8---8-7-8-10-8-7------------------------------------------|
A|---------6-------8--------------8----------------------------------------|
E|-------------------------------------------------------------------------|

Guitar 3- Bass- (Greg)
G|-------------------------------------------------------------------------|
D|-------------------------------------------------------------------------|
A|-8-8-8-8-8-8-8-8-4-4-4-4-4-4-4-4-----------------6-6-6-6-6-6-6-6---------|
E|---------------------------------4-4-4-4-4-4-4-4-------------------------|

Verse X4- (0:56-1:14)

Guitar 3- Bass- (Greg)
G|-------------------------------------------------------------------------|
D|-------------------------------------------------------------------------|
A|-----------------4-4-4-4-4-4-4-4-4-----------------6-6-6-6-6-6-6-6-------|
E|-1-1-1-1-1-1-1-1-------------------4-4-4-4-4-4-4-4-----------------------|

Guitar 1 (Dexter)- This part comes in after the bass goes through twice X2
E|-------------------------------------------------------------------------|
B|-------------------------------------------------------------------------|
G|-------------6-6-6-6-6-6-------------8-8-8-8-8-8--------8-8-8-8-8-8-8-8-8|
D|-3-3-3-3-3-3-6-6-6-6-6-6-6-6-6-6-6-6-6-6-6-6-6-6--------6-6-6-6-6-6-6-6-6|
A|-3-3-3-3-3-3-4-4-4-4-4-4-6-6-6-6-6-6-6-6-6-6-6-6--------6-6-6-6-6-6-6-6-6|
E|-1-1-1-1-1-1-------------4-4-4-4-4-4-------------------------------------|

Chorus X4- (1:15-1:28)

Guitar 1 (Dexter)
E|-------------------------------------------------------------------------|
B|-------------------------------------------------------------------------|
G|-------------------------------------------------------------------------|
D|-10-10-10-10-10-10-10-10-6-6-6-6-6-6-6-6-----------------8-8-8-8-8-8-8-8-|
A|-8--8--8--8--8--8--8--8--4-4-4-4-4-4-4-4-6-6-6-6-6-6-6-6-6-6-6-6-6-6-6-6-|
E|-----------------------------------------4-4-4-4-4-4-4-4-----------------|

Guitar 3 (Greg)
G|-------------------------------------------------------------------------|
D|-------------------------------------------------------------------------|
A|-8-8-8-8-8-8-8-8-4-4-4-4-4-4-4-4-----------------6-6-6-6-6-6-6-6---------|
E|---------------------------------4-4-4-4-4-4-4-4-------------------------|

Guitar 2 (Noodles) This part comes in after the chorus is played twice
E|-------------------------------------------------------------------------|
B|-------------------------------------------------------------------------|
G|-------------------------------------------------------------------------|
D|-5-8-7-8---8-7-8---8-6-8-10-8-7------------------------------------------|
A|---------6-------8--------------8----------------------------------------|
E|-------------------------------------------------------------------------|

Solo X4- (1:39-2:01)

Guitar 1 (Dexter)
E|-------------------------------------------------------------------------|
B|-------------------------------------------------------------------------|
G|-5-5-5--6-6-6--5-5-5--3-3-3----------------------------------------------|
D|--3-3-3--6-6-6--6-6-6--1-1-1---------------------------------------------|
A|-------------------------------------------------------------------------|
E|-------------------------------------------------------------------------|

Guitar 2 Comes in at the fourth time of the solo
E|-------------------------------------------------------------------------|
B|-------------------------------------------------------------------------|
G|-------------6-6-6-6-6-6-------------8-8-8-8-8-8-------------------------|
D|-3-3-3-3-3-3-6-6-6-6-6-6-6-6-6-6-6-6-6-6-6-6-6-6-------------------------|
A|-3-3-3-3-3-3-4-4-4-4-4-4-6-6-6-6-6-6-6-6-6-6-6-6-------------------------|
E|-1-1-1-1-1-1-------------4-4-4-4-4-4-------------------------------------|

Chorus X4 (2:02-2:24)

Guitar 1 (Dexter) 
E|-------------------------------------------------------------------------|
B|-------------------------------------------------------------------------|
G|-------------------------------------------------------------------------|
D|-10-10-10-10-10-10-10-10-6-6-6-6-6-6-6-6-----------------8-8-8-8-8-8-8-8-|
A|-8--8--8--8--8--8--8--8--4-4-4-4-4-4-4-4-6-6-6-6-6-6-6-6-6-6-6-6-6-6-6-6-|
E|-----------------------------------------4-4-4-4-4-4-4-4-----------------|

Guitar 2 (Noodles) Play twice then switch and play the Pre-Chorus(Go down)
E|-------------------------------------------------------------------------|
B|-------------------------------------------------------------------------|
G|-5-5-5-5-5-5-5-5-6-6-6-6-6-6-6-6-5-5-5-5-5-5-5-5-3-3-3-3-3-3-3-3---------|
D|-3-3-3-3-3-3-3-3-6-6-6-6-6-6-6-6-6-6-6-6-6-6-6-6-1-1-1-1-1-1-1-1---------|
A|-------------------------------------------------------------------------|
E|-------------------------------------------------------------------------|

Guitar 3 (Greg)
G|-------------------------------------------------------------------------|
D|-------------------------------------------------------------------------|
A|-8-8-8-8-8-8-8-8-4-4-4-4-4-4-4-4-----------------6-6-6-6-6-6-6-6---------|
E|---------------------------------4-4-4-4-4-4-4-4-------------------------|

Guitar 2 (Noodles)Here is the pre-chorus part that guitar 2 plays
E|-------------------------------------------------------------------------|
B|-------------------------------------------------------------------------|
G|-------------------------------------------------------------------------|
D|-5-8-7-8---8-7-8---8-6-8-10-8-7------------------------------------------|
A|---------6-------8--------------8----------------------------------------|
E|-------------------------------------------------------------------------|

Outro X2

Guitar 1 (Dexter)
E|-------------------------------------------------------------------------|
B|-------------------------------------------------------------------------|
G|-------------------------------------------------------------------------|
D|-10-10-10-10-10-10-10-10-6-6-6-6-6-6-6-6-----------------8-8-8-8-8-8-8-8-|
A|-8--8--8--8--8--8--8--8--4-4-4-4-4-4-4-4-6-6-6-6-6-6-6-6-6-6-6-6-6-6-6-6-|
E|-----------------------------------------4-4-4-4-4-4-4-4-----------------|

Guitar 2 (Noodles)
E|-------------------------------------------------------------------------|
B|-------------------------------------------------------------------------|
G|-------------------------------------------------------------------------|
D|-5-8-7-8---8-7-8---8-6-8-10-8-7------------------------------------------|
A|---------6-------8--------------8----------------------------------------|
E|-------------------------------------------------------------------------|

Guitar 3- Bass- (Greg)
G|-------------------------------------------------------------------------|
D|-------------------------------------------------------------------------|
A|-8-8-8-8-8-8-8-8-4-4-4-4-4-4-4-4-----------------6-6-6-6-6-6-6-6---------|
E|---------------------------------4-4-4-4-4-4-4-4-------------------------|

Ending

Guitar 1 (Dexter)
E|-------------------------------------------------------------------------|
B|-------------------------------------------------------------------------|
G|-8-8-8-8-8-8-8-8-8----3--------------------------------------------------|
D|-6-6-6-6-6-6-6-6-6----1--------------------------------------------------|
A|-6-6-6-6-6-6-6-6-6----1--------------------------------------------------|
E|-------------------------------------------------------------------------|
                        ^Let Ring
comments
We did not receive enough feedback on this tab! Please rate:
print report bad tab
1 2 3 4 5
I want to post or [tab]
guest
You may want to rate the tab now too:
select rating
Please do not post tabs as comments. Select "correction" instead!