Oops, an error
Loading. Please wait.

Days Go By Bass Tab

version 1
version 1

Whole song

Interactive

3,413 views 15 this week
no commentswrite comment
1 2 3 4 5
worth learning
x 3
add to favorites
launch autoscroll
font size
0
reset
guitar tuner
Tab Pro tools
  • play this tab
  • loop segment
  • change instrument
  • show fretboard
  • metronome
Autoscroll
slow
fast
+/-
esc
set tempo
stop
Contributor
Difficulty
novice
Intro

G|--------------------------------------------------|
D|--------------------------------------------------|
A|----5-5-------------------------------------------|
E|--------------------------------------------------| (x4)

Main Riff

G|--------------------------------------------------|
D|--------------------------------------------------|
A|---7(x8)-5(x8)-------7(x7)-5-5--------------------|
E|---------------5(x8)------------------------------| x3

The verses are the same, without that litte bit on the fifth fret at the end.

Chorus

G|--------------------------------------------------|
D|--------------------------------------------------|
A|-5(x4)-----7(x4)--------5(x4)-----7(x8)-----------|
E|------5(x4)------7(x4)-------5(x4)----------------|

Song Order

Intro
Main Riff
Verse
Chorus
Verse
Chorus
Intro
Main Riff
Chorus x2

And then the bass doesn't play anything in the outro, but it's the same chords as the 
chorus if you wanna muck around a bit

That's pretty much it. Real easy song.
comments
We did not receive enough feedback on this tab! Please rate:
print report bad tab
1 2 3 4 5
I want to post or [tab]
guest
You may want to rate the tab now too:
select rating
Please do not post tabs as comments. Select "correction" instead!