Oops, an error
Loading. Please wait.

Days Go By Tab

version 1
version 1

Interactive

22,516 views 30 this week
1 commentread comment
1 2 3 4 5
accurate
x 3
add to favorites
launch autoscroll
font size
0
reset
how to read this tab
guitar tuner
Tab Pro tools
  • play this tab
  • loop segment
  • change instrument
  • show fretboard
  • metronome
×
Best way to learn
"Days Go By"
Autoscroll
slow
fast
+/-
esc
set tempo
stop
Contributor
Difficulty
intermediate
-----------------------------------------------------------------------------
                             The Offspring-Days Go By
-----------------------------------------------------------------------------
Tabbed by: shadowxxs6
Email: whkmaker@hotmail.com

Tuning: Standard

first the play an Em with both guitar (one plays a low one and one a high one)
 (low)     (high)
e|--------------------------------------------------------------------------|
B|--------------------------------------------------------------------------|
G|----------9-9-------------------------------------------------------------|
D|-2-2------9-9-------------------------------------------------------------|
A|-2-2------7-7-------------------------------------------------------------|
E|-0-2----------------------------------------------------------------------|

Intro/Riff Part I
play this (down here)2x
e|----------------------------------------------------------------------------|
B|----------------------------------------------------------------------------|
G|---9s7--7s6-6s4-4s6-4s6-4-6-4-2---------------------------------------------|
D|----------------------------------------------------------------------------|
A|-7--------------------------------------------------------------------------|
E|----------------------------------------------------------------------------|
+
e|--------------------------------------------------------------------------|
B|--------------------------------------------------------------------------|
G|---9s7-7s6-6s4-4s9-9-9----------------------------------------------------|
D|--------------------------------------------------------------------------|
A|-7------------------------------------------------------------------------|
E|--------------------------------------------------------------------------|

Intro/Riff Part 2
then play this 3x
e|--------------------------------------------------------------------------|
B|--------------------------------------------------------------------------|
G|-----9-7------------------------------------------------------------------|
D|-7p9-----9-7s6------------------------------------------------------------|
A|--------------7-----------------------------------------------------------|
E|--------------------------------------------------------------------------|
+
this 1x
e|--------------------------------------------------------------------------|
B|--------------------------------------------------------------------------|
G|-----9-7------------------------------------------------------------------|
D|-7P9-----9-7S6S9-7-6------------------------------------------------------|
A|----------------------9---------------------------------------------------|
E|--------------------------------------------------------------------------|

then you have a verse that you have to play with 4 chords(you can stroke them, palm mute
or play them string by string)

 Verse
   Em    Dm    Am   Em
e|----------------------------------------------------------------------------|
B|----------------------------------------------------------------------------|
G|-9------7-------------------------------------------------------------------|
D|-9------7----7-----2--------------------------------------------------------|
A|-7------5----7-----2--------------------------------------------------------|
E|-------------5-----0--------------------------------------------------------|

and you have chorus with 3 chords(you can also stroke them, palm mute or play them 
string by string)

Chorus
   Bm   Am   Em
e|--------------------------------------------------------------------------|
B|--------------------------------------------------------------------------|
G|-4----2-------------------------------------------------------------------|
D|-4----2-----2-------------------------------------------------------------|
A|-2----0-----2-------------------------------------------------------------|
E|------------0-------------------------------------------------------------|

at some part in the chorus guitar 2 plays this lick:

Chorus lick
e|--------------------------------------------------------------------------|
B|-12--10---9---------------------------------------------------------------|
G|-x---x---x----------------------------------------------------------------|
D|-9---7---6----------------------------------------------------------------|
A|--------------------------------------------------------------------------|
E|--------------------------------------------------------------------------|

that was the whole song infact there is a bridge but you need to play the intro there

if there is someting wrong, comment or mail me
comments
We did not receive enough feedback on this tab! Please rate:
print report bad tab
1 2 3 4 5
1 comment total.
0 reply
impalax327 wrote on October 3 2012, 07:04 am

Capo 2nd fret....

I want to post or [tab]
guest
You may want to rate the tab now too:
select rating
Please do not post tabs as comments. Select "correction" instead!