Oops, an error
Loading. Please wait.

Defy You Tab

version 2
version 2

Interactive

Video

39,518 views 54 this week
33 commentsread comments
1 2 3 4 5
excellent!
x 42
add to favorites
launch autoscroll
font size
0
reset
how to read this tab
guitar tuner
Tab Pro tools
  • play this tab
  • loop segment
  • change instrument
  • show fretboard
  • metronome
×
Best way to learn
"Defy You"
Autoscroll
slow
fast
+/-
esc
set tempo
stop
Contributor
ok i cant take credit for this cuz i didnt tab this ,well maybe a lil bit of it, but this is 100% i think (i have no ear for music =P)

Title: Defy You 
Artist: The Offspring 
Date: 10 Nov 2001 13:51 +10:00 


Tuning : Standard 

/ = slide up 
\ = slide down 
* = let ring 


Rhy Fig. 1 
e|---------------------------------------------------| 
b|---------------------------------------------------| 
g|-7/9-9-9-9--9--------------------------------------| 
d|-7/9-9-9-9--9--5--5-5-55-5/7-7-7-7--7--2--2-2--2-2-| 
a|-5/7-7-7-7--7--5--5-5-55-5/7-7-7-7--7--2--2-2--2-2-| 
E|---------------3--3-3-33-3/5-5-5-5--5--0--0-0--0-0-| 

e|--------------------------------------------------| 
b|--------------------------------------------------| 
g|-7/9-9-9-9--9-------------------------------------| 
d|-7/9-9-9-9--9--5--5-5-55--7---75---7---2-2--5-2---| 
a|-5/7-7-7-7--7--5--5-5-55--7---75---7---2-2--5-2---| 
E|---------------3--3-3-33--5---53---5---0-0--3-0---| 
[p.m.] 

Rhy. Fill 1 
e|---------------------------------------| 
b|---------------------------------------| 
g|-7/9-9-9-9--9--------------------------| 
d|-7/9-9-9-9--9--5--5-5-55--7---75---2---| 
a|-5/7-7-7-7--7--5--5-5-55--7---75---2---| 
E|---------------3--3-3-33--5---53---0---| 


Riff 1 
e|-----------------------------------| 
b|-----------------------------------| 
g|-7/9-9-9-9--9-9~---9-9/12-12\9-9-9-| 
d|-----------------------------------| 
a|-----------------------------------| 
E|-----------------------------------| 

Riff 3 
e|---------------------------------------| 
b|---------------------------------------| 
g|-7/9-9-9-9--9-9~--/-14-14-14-12/14-14\-| 
d|---------------------------------------| 
a|---------------------------------------| 
E|---------------------------------------| 


Rhy Fig. 2 
e|-------------------------------------------| 
b|-------------------------------------------| 
g|---7-7-7-9-9-9-----------------------------| 
d|-2-7-7-7-9-9-9-5-5----2-5-5-5-7-7-7-2-2----| 
a|-2-5-5-5-7-7-7-5-5----2-5-5-5-7-7-7-2-2----| 
E|-0-------------3-3----0-3-3-3-5-5-5-0-0----| 
p.m.----------------------------------| 

e|----------------------------------------------| 
b|----------------------------------------------| 
g|---7-7-7-9-9-9--------------------------------| 
d|-2-7-7-7-9-9-9-5-5----2-5-5-5-7-7-7-2-2----5--| 
a|-2-5-5-5-7-7-7-5-5----2-5-5-5-7-7-7-2-2----5--| 
E|-0-------------3-3----0-3-3-3-5-5-5-0-0----3--| 
p.m.----------------------------------| 

e|-------------------------------------------| 
b|-------------------------------------------| 
g|---7-7-7-9-9-9-----------------------------| 
d|-2-7-7-7-9-9-9-5-5----2-5-5-5-7-7-7-2-2----| 
a|-2-5-5-5-7-7-7-5-5----2-5-5-5-7-7-7-2-2----| 
E|-0-------------3-3----0-3-3-3-5-5-5-0-0----| 
p.m.----------------------------------| 

e|----------------------------------------------| 
b|----------------------------------------------| 
g|---7-7-7-9-9-9--------------------------------| 
d|-2-7-7-7-9-9-9-5-5----2-5-5-5-7-7-5-7-7-5-7-7-| 
a|-2-5-5-5-7-7-7-5-5----2-5-5-5-7-7-5-7-7-5-7-7-| 
E|-0-------------3-3----0-3-3-3-5-5-3-5-5-3-5-5-| 
p.m.----------------------------| 


Riff 2 
e|-------------------------------------------------------| 
b|-------------------------------------------------------| 
g|-------------------------------------------------------| 
d|-9*-------------------------7*-------------------------| 
a|-7-7--7-7--7-7--7-7--7-7-7--5-5--5-5--5-5--5-5--5--5-5-| 
E|-------------------------------------------------------| 

e|------------------------------------------------------| 
b|------------------------------[7-5-----5-3------------| 
g|-----------------------------------7-------5]---------| 
d|------------------------------------------------------| 
a|-5*-------------------------7*------------------------| 
E|-3-3--3-3--3-3--3-3--3-3-3--5-5--5-5--5-5--5-5--5-5-5-| 


Rhy. Fill 2 
e|---------------------------------| 
b|---------------------------------| 
g|---------------------------------| 
d|-5-5-5-5-5-5-5-5-7-7-7-7-7-7-7-7-| 
a|-5-5-5-5-5-5-5-5-7-7-7-7-7-7-7-7-| 
E|-3-3-3-3-3-3-3-3-5-5-5-5-5-5-5-5-| 
p.m.----------------------------| 

Rhy. Fill 3 
e|----------------------------| 
b|----------------------------| 
g|-9-9--9-9--9-9--9-9--9--9-9-| 
d|-x-x--x-x--x-x--x-x--x--x-x-| 
a|-7-7--7-7--7-7--7-7--7--7-7-| 
E|----------------------------| 



Order 

Rhy. Fig. 1 
Rhy. Fig. 1 & Rhy. Fill 1 (3x Riff 1) 
Rhy. Fig. 2 
2x Rhy. Fig. 1 
Rhy. Fig. 2 
Riff 2, Rhy Fill 2 
2x Rhy. Fig. 1 
Riff 2 
2x Rhy. Fig. 1 
2x Rhy. Fig. 1 (3x Riff 1) 
2x Rhy. Fig. 1 (2x Riff 1 + Riff 3) 
4x Riff 2 
Riff 2, Rhy. Fill 3 
2x Rhy. Fig. 1 
1x Last part of Rhy. Fig. 1 
1x Rhy. Fill 1 * let ring. 
comments
print report bad tab
33 comments total. Showing first comments.
0 reply
Stealth wrote on December 28 2001, 12:00 am

yeah the best ever!

0 reply
Fentoozler wrote on January 10 2002, 12:00 am

This tab rocks my socks!! hehe

0 reply
skaterpim9 wrote on January 16 2002, 12:00 am

this tab is pimp

I want to post or [tab]
guest
You may want to rate the tab now too:
select rating
Please do not post tabs as comments. Select "correction" instead!