Oops, an error
Loading. Please wait.

Defy You Tab

version 5
version 5

Interactive

Video

848 views 1 this week
2 commentsread comments
1 2 3 4 5
accurate
x 3
add to favorites
launch autoscroll
font size
0
reset
how to read this tab
guitar tuner
Tab Pro tools
  • play this tab
  • loop segment
  • change instrument
  • show fretboard
  • metronome
×
Best way to learn
"Defy You"
Autoscroll
slow
fast
+/-
esc
set tempo
stop
Title-Defy You
Author-The Offspring
Album-Orange County Soundtrack
Author of tab-Adam Beagle
notes-cool to play. not too hard. overall a really good song.

Legend:
/=slide  
PM---- =palm mute (dash's say how long to palm mute)

Main Riff (intro and chorus)
|----------------------------------------------------------------------|
|----------------------------------------------------------------------|
|-7\9-9-9-9-9----------------------7\9-9-9-9-9-------------------------|
|-7\9-9-9-9-9-5-5-5-5-5\7-7-7-7-2--7\9-9-9-9-9-5-5--5-5-5-7-5-7-2-5-2--|
|-5\7-7-7-7-7-5-5-5-5-5\7-7-7-7-2--5\7-7-7-7-7-5-5--5-5-5-7-5-7-2-5-2--|
|-------------3-3-3-3-3\5-5-5-5-0--------------3-3--3-3-3-5-3-5-0-3-0--|

2nd guitar part in intro
|-----------------------------)--------------|
|-----------------------------)--------------|
|-7\9-9-9-9-9-9--9-9-12-12-9-9)x3------------|
|-----------------------------)---7-7-5-5-2--|
|-----------------------------)---7-7-5-5-2--|
|-----------------------------)---5-5-3-3-0--|

Verse
  PM------------------------------|
|-----------------|-----------------|
|-----------------|-----------------|
|-7\9-9-9-9-9-----|-----------------|
|-7\9-9-9-9-9-5-5-|-5-5-5\7-7-7-7-2-|
|-5\7-7-7-7-7-5-5-|-5-5-5\7-7-7-7-2-|
|-------------3-3-|-3-3-3\5-5-5-5-0-|


 1st bridge                  PM------------------|
|---------------------------------------------------|
|---------------------------------------------------|
|---------------------------------------------------|
|----------------------------5-5-5-5-5-5-5-7-7-7-7--|
|-7-7-7-7-7-7--5-5-5-5-5-5---5-5-5-5-5-5-5-7-7-7-7--|
|----------------------------3-3-3-3-3-3-3-5-5-5-5--|

solo
|------------------------)----------------------|
|------------------------)----------------------|
|-7-9-9-9-9-9-9-12-12-9-9)----------------------|
|------------------------)x3-7-7-5-5-7-2-2-5-2--|
|------------------------)---7-7-5-5-7-2-2-5-2--|
|------------------------)---5-5-3-3-5-0-0-3-0--|

solo (cont.)
|------------------------)-----------------------------------------------------|
|------------------------)-----------------------------------------------------|
|-7-9-9-9-9-9-9-12-12-9-9)----7-9-9-9-9-14-14-12-12-14-14----------------------|
|------------------------)x2-------------------------------7-7-5-5-7--2-2-5-2--|
|------------------------)---------------------------------7-7-5-5-7--2-2-5-2--|
|------------------------)---------------------------------5-5-3-3-5--0-0-3-0--|

2nd Bridge (x4)
|-------------------------------------------------------------------|
|-------------------------------------------------------------------|
|-------------------------------------------------------------------|
|-------------------------------------------------------------------|
|-7-7-7-7-7-7-7-7--5-5-5-5-5-5-5-5--2-2-2-2-2-2-2--3-3-3-3-3-3-3-3--|
|-------------------------------------------------------------------|

2nd bridge cont.
|-------------------------------------------------------------------|
|-------------------------------------------------------------------|
|-------------------------------------------------------------------|
|---9-----9---9------7-----7---7------------------------------------|
|-7---7-7---7---7/-5---5-5---5-----5-----5---5------7-----7---7-----|
|--------------------------------3---3-3---3---3/-5---5-5---5-------|
  PM----------------------------------------------------------------|

Repeated note in bridge
|--------------------|
|--------------------|
|-9-9-9-9-9-9-9-9-9--|
|--------------------|
|--------------------|
|--------------------|

2nd bridge ending
|------------------------|
|------------------------|
|------------------------|
|-5-5-5-5-5-5-5-7-7-7-7--|
|-5-5-5-5-5-5-5-7-7-7-7--|
|-3-3-3-3-3-3-3-5-5-5-5--|
  PM-------------------

ending line
|-----------------------------------|
|-----------------------------------|
|-7-9-9-9-9--9-9--------------------|
|-7-9-9-9-9--9-9--5-5-5--7-7-5-5-2--|
|-5-7-7-7-7--7-7--3-5-5--7-7-5-5-2--|
|-----------------3-3-3--5-5-3-3-0--|
comments
We did not receive enough feedback on this tab! Please rate:
print report bad tab
1 2 3 4 5
2 comments total.
0 reply
ShredHed69 wrote on February 26 2002, 12:00 am

This is the most accurate I have seen yet. Good job.

0 reply
erclagui wrote on March 7 2002, 12:00 am

nice job sounds awsome

I want to post or [tab]
guest
You may want to rate the tab now too:
select rating
Please do not post tabs as comments. Select "correction" instead!