Oops, an error
Loading. Please wait.

Denial Revisited tab

version 3
version 3

Whole song

Interactive

7,104 views 12 this week
9 commentsread comments
1 2 3 4 5
x 12
add to favorites
×
Save as Personal and add changes to this tab that will be seen only by you. Learn more ›
×
You can save this tab as Personal to edit and correct it or add notes. All changes will be seen only by you. Learn more »
launch autoscroll
font size
0
reset
how to read this tab
guitar tuner
backing track
0:00
0:00
edit
Autoscroll
slow
fast
+/-
esc
set tempo
stop
Author
-------------------------------------------------------------------------------
                             DENIAL, REVISITED - The Offspring
-------------------------------------------------------------------------------
Tabbed by:joecool71
Email:mattconnellan@yahoo.com

Tuning:Standard

Intro (part 1)
e|-----------------------------------------------------------------------------|
B|-----------------------------------------------------------------------------|
G|-14-14-14-14/15-14--11--9--7-7-7-7/9-9--4---14-14-14-14/15-14--11--9-7-9-9---|
D|-----------------------------------------------------------------------------|
A|-12-12-12-12/13-12--9---7--5-5-5-5/7-7--2---12-12-12-12/13-12--9---7-5-7-7---|
E|-----------------------------------------------------------------------------|

Intro (cont'd)
e|-0--0-0-0-0-0--0-0-0-0--0-0--0-------|
B|-9--9-9-9-9-9--9-9-9-10-9-10-10/12---|
G|-------------------------------------|
D|-------------------------------------|
A|-------------------------------------|
E|-------------------------------------|

Verse 
e|-----0-----------------0---------------------------------------|
B|-9-----9---7h9-----9-----9---7h9-----7-7-7--4-4-4-4/-9-9-9-9---|
G|---9-----9-----9-----9-----9-----9---7-7-7--5-5-5-5/-9-9-9-9---|
D|---------------------------------------------------------------|
A|---------------------------------------------------------------|
E|---------------------------------------------------------------|

Prechorus
e|---------------------------|
B|---------------------------|
G|-9-9-9-9-9-9-9-9-9-9-9-9---|
D|-9-9-9-9-9-9-9-9-9-9-9-9---|
A|-7-7-7-7-7-7-7-7-7-7-7-7---|
E|---------------------------|

Chorus
e|-------------------------------------|
B|-------------------------------------|
G|-7-7-7-7--6-6-6-6--9-9-9-9-9-9-9-9---|
D|-7-7-7-7--7-7-7-7--9-9-9-9-9-9-9-9---|
A|-5-5-5-5--7-7-7-7--7-7-7-7-7-7-7-7---|
E|-5-5-5-5--5-5-5-5--------------------|

Different chorus ending 1
e|-------------------------|
B|-------------------------|
G|-----------------7---9---|
D|-5-5-5-5-7-7-7-7-7-7-9---|
A|-5-5-5-5-7-7-7-7-5-7-7---|
E|-3-3-3-3-5-5-5-5---5-----|

Different chorus endind 2
e|-------------|
B|-------------|
G|-7--7-7-7----|
D|-7--7-7-7-7--|
A|-5--5-5-5-7--|
E|----------5--|

Short Break
e|-------------------------------------------------------------------|
B|-------------------------------------------------------------------|
G|-------------------------------------------------9-9-9-9-9-9-9-9---|
D|---------------------------------9-9-9-9-9-9-9-9-9-9-9-9-9-9-9-9---|
A|-----------------7-7-7-7-7-7-7-7-7-7-7-7-7-7-7-7-7-7-7-7-7-7-7-7---|
E|-0-0-0-0-0-0-0-0-0-0-0-0-0-0-0-0-0-0-0-0-0-0-0-0-0-0-0-0-0-0-0-0---|
   pm---------------------------------------------I

Ending
e|-0-0-0-0-0-0-0-0-0-0-0-0-0---0-0-0-0---|
B|-5-5-5-5-5-5-5-5-3-3-3-3-3/5-5-5-5-5---|
G|-4-4-4-4-4-4-4-4-2-2-2-2-2/4-4-4-4-4---|
D|-6-6-6-6-6-6-6-6-4-4-4-4-4/6-6-6-6-6---|
A|-7-7-7-7-7-7-7-7-5-5-5-5-5/7-7-7-7-7---|
E|---------------------------------------|

Ending (cont'd)
e|-0---0-0-0-0-0--0-0--0-----0--0-0-0-0-0-0-0-0-0-0-0-0---|
B|-7/9-9-9-9-9-10-9-10-10/12-10-9-7-3-3-3-3-3-5-5-5-5-5---|
G|-7----------------------------------2-2-2-2-6-6-6-6-4---|
D|------------------------------------4-4-4-4-7-7-7-7-6---|
A|------------------------------------5-5-5-5---------7---|
E|--------------------------------------------------------|

SEQUENCE
Intro (part 1) (x2)
Intro (cont'd)
Verse (x4)
Prechorus
Chorus (x2)
Intro (part 1)
Intro (cont'd)
Verse (x2)
Prechorus
Chorus (x2)
Different chorus ending 1
Intro (part 1) 
Short Break
Chorus (x3)
Different chorus ending 2
Ending
Ending (cont'd)

LYRICS
So here we go
Having the same old fight again
There she goes
Same old game that never ends If I could say
The right words
I know I could make you stay
If I could say
The right words
Things would work out all right

And if you go
I won't believe
That it's forever

And you can go
But I'll never leave
Cause it's not over

Replay last night
Talking it out don't make it right
I know she's tried, but my whole world
Is her and all we've got now

And if you go
I won't believe
That it's forever

I won't let go
Even if she say that it's over
I know it'll be
Different this time
If you'd just stay

And when we wrote this story
How did it end?
It was you and me for all our lives
Come on, donat say it
We'll try again
And if I'd just hold you
We could last

But she stands softly
Tears down her face
Hitting me, oh god
This is the end
I'd wait here for
But there's nothing more now I can do
How did you know
How did you know
How did you know
Finally 

| /  slide up
| \  slide down
| h  hammer-on
| p  pull-off
| ~  vibrato
| +  harmonic
| x  Mute note
==================================================================
Suggest correction
Creating personal tab
Creating personal tab
You can edit any tab online and save it as your Personal.

You can edit, replace or remove any tab part or add personal notes – all changes will be seen only by you.

Personal tabs can be accessed anytime from any device, even offline.
Learn more »
comments
print report bad tab
9 comments total. Showing first comments.
0 reply
joecool71 510 Nov 10, 2003 07:00 PM

I have no idea why someone rated this tab a 1. The music is exact, and I even submitted lyrics. I guess someone is just a spiteful loser

0 reply
joecool71 510 Sep 04, 2004 08:00 PM

No more booze for this guy

0 reply
:Revenga: 370 Aug 15, 2005 08:00 PM

Is it just me or is there some sort of distorted backing in the intro? oh well.

guest
You may want to rate the tab now too:
select rating
Wanna post a correction for this tab? Suggest correction