Oops, an error
Loading. Please wait.

Denial Revisited Tab

version 4
version 4

Whole song

Interactive

662 views 1 this week
no commentswrite comment
1 2 3 4 5
please rate
add to favorites
launch autoscroll
font size
0
reset
how to read this tab
guitar tuner
Tab Pro tools
  • play this tab
  • loop segment
  • change instrument
  • show fretboard
  • metronome
×
Best way to learn
"Denial Revisited"
Autoscroll
slow
fast
+/-
esc
set tempo
stop
Contributor
-------------------------------------------------------------------------------
                            Denial Revivisited - The Offspring
-------------------------------------------------------------------------------
Tabbed by: Ryan Armstrong
Email:

Tuning: Standard
  
this is my second tab for the offspring mite be a bit long.

  Intro main riff (guitar 1)
e|-----------------------------------------------------------------|
B|-----------------------------------------------------------------|
G|-14-14-14-15-14-12-10-8-8-10-10-10-5-5-14-14-14-15-12-10-8-10-10-|
D|-----------------------------------------------------------------|
A|-12-12-12-13-12-10--8-6-6--8--8--8-3-3-12-12-12-13-10--8-6--8--8-|
E|-----------------------------------------------------------------|
  (guitar 2)
e|-------------------------------------------|
B|-------------------------------------------|
G|-8-8-8-8-8-8-8-8-8/10-10-10-10-10-10-10-10-|
D|-8-8-8-8-8-8-8-8-8/10-10-10-10-10-10-10-10-|
A|-6-6-6-6-6-6-6-6-6/-8--8--8--8--8--8--8--8-|
E|-------------------------------------------|
  Pre verse
e|------------------------------------------|
B|-8/10-10-10-10-10-10-10-10-11-10-11-11/13-|
G|------------------------------------------|
D|------------------------------------------|
A|------------------------------------------|
E|------------------------------------------|


  Verse
e|-5-----5---5-6-5------5----5-6-5-|
B|---6-6----6--------6-6----6------|
G|---------------------------------|
D|---------------------------------|
A|---------------------------------|
E|---------------------------------|
  Continued  
e|-3---3---3-4-1------1-----5----5----5---5---5-----|
B|---4---4-------1--1---1-1---6-----6---6---6---6---|
G|--------------------------------------------------|
D|--------------------------------------------------|
A|--------------------------------------------------|
E|--------------------------------------------------|
  (Guitar 1) play x4
e|-1-1-1-1-1-1-1-1-1-1-1-1-1-1-1-1--1-1-1-1-1-1-1-1--1-1-1-1-1-1-1-1-|
B|-1-1-1-1-1-1-1-1-1-1-1-1-1-1-1-1--4-4-4-4-4-4-4-4--4-4-4-4-4-4-4-4-|
G|-2-2-2-2-2-2-2-2-2-2-2-2-2-2-2-2--3-3-3-3-3-3-3-3--3-3-3-3-3-3-3-3-|
D|-3-3-3-3-3-3-3-3-3-3-3-3-3-3-3-3--1-1-1-1-1-1-1-1--3-3-3-3-3-3-3-3-|
A|-3-3-3-3-3-3-3-3-3-3-3-3-3-3-3-3-------------------1-1-1-1-1-1-1-1-|
E|-1-1-1-1-1-1-1-1-1-1-1-1-1-1-1-1-----------------------------------|
  Pre Chorus
e|-----------------|
B|-----------------|
G|-----------------|
D|-----------3-3-3-|
A|-3-3-3-3-3-3-3-3-|
E|-1-1-1-1-1-1-1-1-|
  Chorus
e|-------------------------------------------|
B|-------------------------------------------|
G|-8-8-8-8-8-8-------------10-10-10-10-10-10-|
D|-8-8-8-8-8-8-8-8-8-8-8-8-10-10-10-10-10-10-|
A|-6-6-6-6-6-6-8-8-8-8-8-8--8--8--8--8--8--8-|
E|-------------6-6-6-6-6-6-------------------|
  Solo
e|------------------------------------------------------------------|
B|------------------------------------------------------------------|
G|-14-14-14-15-14-12-10-8-8-10-10-10-5-5-14-14-14-15-12-10-8-10-10--|
D|------------------------------------------------------------------|
A|-12-12-12-13-12-10--8-6-6--8--8--8-3-3-12-12-12-13-10--8-6--8--8--|
E|------------------------------------------------------------------|
  Verse
e|-5-----5---5-6-5------5----5-6-5------------------|
B|---6-6----6--------6-6----6-----------------------|
G|--------------------------------------------------|
D|--------------------------------------------------|
A|--------------------------------------------------|
E|--------------------------------------------------|
  Continued  
e|-3---3---3-4-1------1-----5----5----5---5---5-----|
B|---4---4-------1--1---1-1---6-----6---6---6---6---|
G|--------------------------------------------------|
D|--------------------------------------------------|
A|--------------------------------------------------|
E|--------------------------------------------------|
                guitar 1 play the same as before
  Pre chorus
e|-----------------|
B|-----------------|
G|-----------------|
D|-----------3-3-3-|
A|-3-3-3-3-3-3-3-3-|
E|-1-1-1-1-1-1-1-1-|
  Chorus
e|-------------------------------------------|
B|-------------------------------------------|
G|-8-8-8-8-8-8-------------10-10-10-10-10-10-|
D|-8-8-8-8-8-8-8-8-8-8-8-8-10-10-10-10-10-10-|
A|-6-6-6-6-6-6-8-8-8-8-8-8--8--8--8--8--8--8-|
E|-------------6-6-6-6-6-6-------------------|
  Continued
e|---------------------------------------------------------|
B|---------------------------------------------------------|
G|-8-8-8-8-8-8-----------------------------8---10-10-10-10-|
D|-8-8-8-8-8-8-8-8-8-8-8-8-6-6-6-6-8-8-8-8-8-8-10-10-10-10-|
A|-6-6-6-6-6-6-8-8-8-8-8-8-6-6-6-6-8-8-8-8-6-8--8--8--8--8-|
E|-------------6-6-6-6-6-6-4-4-4-4-6-6-6-6---6-------------|
  Solo
e|-----------------------------------------------------------------|
B|-----------------------------------------------------------------|
G|-14-14-14-15-14-12-10-8-8-10-10-10-5-5-14-14-14-15-12-10-8-10-10-|
D|-----------------------------------------------------------------|
A|-12-12-12-13-12-10--8-6-6--8--8--8-3-3-12-12-12-13-10--8-6--8--8-|
E|-----------------------------------------------------------------|
                Guitar 2 play the same as before
  Continued
e|--------------------------|
B|--------------------------|
G|-8/-10-10-------10-10-10--|
D|-8/-10-10-10-10-10-10-10--|
A|-6/--8--8-10-10--8--8--8--|
E|-----------8--8-----------|
  Continued
e|-----------------------------------------------------------------|
B|-----------------------------------------------------------------|
G|-14-14-14-15-14-12-10-8-8-10-10-10-5-5-14-14-14-15-12-10-8-10-10-|
D|-----------------------------------------------------------------|
A|-12-12-12-13-12-10--8-6-6--8--8--8-3-3-12-12-12-13-10--8-6--8--8-|
E|-----------------------------------------------------------------|
  Bridge
e|-------------------------------------------------------------------------|
B|-------------------------------------------------------------------------|
G|-------------------------------------------------------------------------|
D|-----------------------------------------x-x-x-x-----x-x-x-x-----x-x-x-x-|
A|-3-3-3-3-3-3-3-3-3-3-3-3-3-3-3-3-3-3-3-3-x-x-x-x-3-3-x-x-x-x-3-3-x-x-x-x-|
E|-1-1-1-1-1-1-1-1-1-1-1-1-1-1-1-1-1-1-1-1-x-x-x-x-1-1-x-x-x-x-1-1-x-x-x-x-|

  Chorus
e|-------------------------------------------|
B|-------------------------------------------|
G|-8-8-8-8-8-8-------------10-10-10-10-10-10-|
D|-8-8-8-8-8-8-8-8-8-8-8-8-10-10-10-10-10-10-|
A|-6-6-6-6-6-6-8-8-8-8-8-8--8--8--8--8--8--8-|
E|-------------6-6-6-6-6-6-------------------|
  Continued
e|---------|
B|---------|
G|-8-------|
D|-8-8-8-8-|
A|-6-6-6-8-|
E|-------6-|
 Outro (Guitar 1) play 2x
e|-1-1-1-1-1-1-1-1-1-1-1-1-1-1-1-1--1-1-1-1-1-1-1-1--1-1-1-1-1-1-1-1-|
B|-1-1-1-1-1-1-1-1-1-1-1-1-1-1-1-1--4-4-4-4-4-4-4-4--4-4-4-4-4-4-4-4-|
G|-2-2-2-2-2-2-2-2-2-2-2-2-2-2-2-2--3-3-3-3-3-3-3-3--3-3-3-3-3-3-3-3-|
D|-3-3-3-3-3-3-3-3-3-3-3-3-3-3-3-3--1-1-1-1-1-1-1-1--3-3-3-3-3-3-3-3-|
A|-3-3-3-3-3-3-3-3-3-3-3-3-3-3-3-3-------------------1-1-1-1-1-1-1-1-|
E|-1-1-1-1-1-1-1-1-1-1-1-1-1-1-1-1-----------------------------------|
 Outro (Guitar 2)
e|---------------------------------------------------------|
B|-8/10-10-10-10-10-10-10-10-10-11-10-11-11/13-11-10-------|
G|---------------------------------------------------12-10-|
D|---------------------------------------------------------|
A|---------------------------------------------------------|
E|---------------------------------------------------------|

thats it, its a cool song i hope you guys like it please rate it, back with 
more tabs soon.

| /  slide up
| \  slide down
| h  hammer-on
| p  pull-off
| ~  vibrato
| +  harmonic
| x  Mute note
===============================================================================
comments
We did not receive enough feedback on this tab! Please rate:
print report bad tab
1 2 3 4 5
I want to post or [tab]
guest
You may want to rate the tab now too:
select rating
Please do not post tabs as comments. Select "correction" instead!