Oops, an error
Loading. Please wait.

Dirty Magic Tab

version 3
version 3

Intro

Whole song

Interactive

64,272 views 102 this week
16 commentsread comments
1 2 3 4 5
excellent!
x 30
add to favorites
launch autoscroll
font size
0
reset
how to read this tab
guitar tuner
Tab Pro tools
  • play this tab
  • loop segment
  • change instrument
  • show fretboard
  • metronome
Autoscroll
slow
fast
+/-
esc
set tempo
stop
Artist   - The Offspring
Song     - Dirty Magic
Album    - Ignition
Tabber   - Xero-P
Tunning  - Standard (E,A,D,G,B,E)

Hola, que tal, ésta es mi versión de Dirty Magic, los sonidos salen a la perfección. Por 
votad. Viva España

Hi, whats up? This is my version of Dirty Magic by The Offspring, the sounds like 100% 
Please rate it!

> slide up
< slide down
v vibrato

Guitar 1 - clean  This in whole song

E--------------------------------------------------------------------------|
B--------------------------------------------------------------------------|
G--------------------------------------------------------------------------|
D--------------------------------------------------------------------------|
A--------------7------7-----------10-----------9------I----2---3--2v-I-----|
E--3-3->>>--55---5--5---5->>>--88----8--<<--77---7-<<-I--0---0-------I-----|
                                                              x2

E--------------------------------------------------------------------------|
B--------------------------------------------------------------------------|
G--------------------------------------------------------------------------|
D--------------------------------------------------------------------------|
A----------------7------7-----------10-----------9----I----2---3--2v-I-----|
E------3->>>--55---5--5---5->>>--88----8--<<--77---7<>>>0000--000000<<<000>>>0--00------------------------|
B----55555555<<<<3333>>>>5555--555555<<<333>>>5--00------------------------|
G--------------------------------------------------------------------------|
D--------------------------------------------------------------------------|
A--------------------------------------------------------------------------|
E--------------------------------------------------------------------------|


E----0000>>>>0000--000000<<<000>>>0--00------------------------------------|
B----3333>>>>5555--555555<<<333>>>5--00------------------------------------|
G--------------------------------------------------------------------------|
D--------------------------------------------------------------------------|
A--------------------------------------------------------------------------|
E--------------------------------------------------------------------------|

In my own simple way
I think she wants me only
She said, "Come over right away."


Guitar 2 play this in 00:39 seconds

E----0000>>>>0000---00-----------------------------------------------------|
B----3333>>>>5555---00-----------------------------------------------------|
G--------------------------------------------------------------------------|
D--------------------------------------------------------------------------|
A--------------------------------------------------------------------------|
E--------------------------------------------------------------------------|

But she's just not that way
Her little soul is stolen
See her put on her brand new face


Guitar 2 play this in 00:53 seconds

E----0000>>>>0000000000----------------------------------------------------|
B----3333>>>>5555555555----------------------------------------------------|
G--------------------------------------------------------------------------|
D--------------------------------------------------------------------------|
A--------------------------------------------------------------------------|
E--------------------------------------------------------------------------|

Pull the shades
Razor blades
You're so tragic
I hate you so but love you more
I'm so elastic
The things you say
Games you play
Dirty Magic

Guitar 1 & 2 distortion

Chorus:
e||-----------------------------------------------------------|
B||-----------------------------------------------------------|
G||--7\9--9-9--9----7\9--9-9--9---------------7--7-7--9-7-7---|
D||--7\9--9-9--9----7\9--9-9--9---5-5--5-7-5--7--7-7--7-7-7---|x3
A||--5\7--7-7--7----5\7--7-7--7---5-5--5-5-5--5--5-5--5-5-5---|
E||-------------------------------3-3--3-3-3------------------|

ahhhhh ahhhhh

e||----------------------------------------0--|
B||----------------------------------------0--|
G||----------------------------------------0--|
D||--7-7--7-7-7--7\10-10-10-10--9-9-9-9----2--|
A||--7-7--7-7-7--7\10-10-10-10--9-9-9-9----2--|
E||--5-5--5-5-5--5\8--8--8--8---7-7-7-7----0--|


Guitar 1 - clean  This in whole song

E--------------------------------------------------------------------------|
B--------------------------------------------------------------------------|
G--------------------------------------------------------------------------|
D--------------------------------------------------------------------------|
A--------------7------7-----------10-----------9------I----2---3--2v-I-----|
E--3-3->>>--55---5--5---5->>>--88----8--<<--77---7-<<-I--0---0-------I-----|
                                                              x2

E--------------------------------------------------------------------------|
B--------------------------------------------------------------------------|
G--------------------------------------------------------------------------|
D--------------------------------------------------------------------------|
A----------------7------7-----------10-----------9----------2---3--2v------|
E------3->>>--55---5--5---5->>>--88----8--<<--77---7--<<--0---0------------|


Guitar 2 - clean  play this in 01:21 seconds

E----00000000<<<<0000>>>>0000--000000<<<000>>>0--00------------------------|
B----55555555<<<<3333>>>>5555--555555<<<333>>>5--00------------------------|
G--------------------------------------------------------------------------|
D--------------------------------------------------------------------------|
A--------------------------------------------------------------------------|
E--------------------------------------------------------------------------|


E----0000>>>>0000--000000<<<000>>>0--00------------------------------------|
B----3333>>>>5555--555555<<<333>>>5--00------------------------------------|
G--------------------------------------------------------------------------|
D--------------------------------------------------------------------------|
A--------------------------------------------------------------------------|
E--------------------------------------------------------------------------|

I should know better than to
TThink I'd reach inside her
It's all a cloudy kind of daze

Guitar 2 play this in 01:47 seconds

E----0000>>>>0000--0000>>>>0000-00-----------------------------------------|
B----3333>>>>5555--3333>>>>5555-00-----------------------------------------|
G--------------------------------------------------------------------------|
D--------------------------------------------------------------------------|
A--------------------------------------------------------------------------|
E--------------------------------------------------------------------------|

She's not so sweet today
She mocks me, I'm no fighther
It all just seems like such a waste
It's oversimplified


Guitar 2 play this in 02:00 seconds

E----0000>>>>0000000000----------------------------------------------------|
B----3333>>>>5555555555----------------------------------------------------|
G--------------------------------------------------------------------------|
D--------------------------------------------------------------------------|
A--------------------------------------------------------------------------|
E--------------------------------------------------------------------------|

Pull the shades
Razor blades
You're so tragic
I hate you so but love you more
I'm so elastic
The things you say
Games you play
Dirty Magic

Guitar 1 & 2 DISTORTION 02:03

Chorus:
e||-----------------------------------------------------------|
B||-----------------------------------------------------------|
G||--7\9--9-9--9----7\9--9-9--9---------------7--7-7--9-7-7---|
D||--7\9--9-9--9----7\9--9-9--9---5-5--5-7-5--7--7-7--7-7-7---|x3
A||--5\7--7-7--7----5\7--7-7--7---5-5--5-5-5--5--5-5--5-5-5---|
E||-------------------------------3-3--3-3-3------------------|

ahhhhh ahhhhh

e||----------------------------------------0--|
B||----------------------------------------0--|
G||----------------------------------------0--|
D||--7-7--7-7-7--7\10-10-10-10--9-9-9-9----2--|
A||--7-7--7-7-7--7\10-10-10-10--9-9-9-9----2--|
E||--5-5--5-5-5--5\8--8--8--8---7-7-7-7----0--|

Guitar 1 - clean  This in whole song

E--------------------------------------------------------------------------|
B--------------------------------------------------------------------------|
G--------------------------------------------------------------------------|
D--------------------------------------------------------------------------|
A--------------7------7-----------10-----------9------I----2---3--2v-I-----|
E--3-3->>>--55---5--5---5->>>--88----8--<<--77---7-<<-I--0---0-------I-----|
                                                              x2

E--------------------------------------------------------------------------|
B--------------------------------------------------------------------------|
G--------------------------------------------------------------------------|
D--------------------------------------------------------------------------|
A----------------7------7-----------10-----------9----------2---3--2v------|
E------3->>>--55---5--5---5->>>--88----8--<<--77---7--<<--0---0------------|


Guitar 2 - clean  play this in 00:11 seconds

E----00000000<<<<0000>>>>0000--000000<<<000>>>0--00------------------------|
B----55555555<<<<3333>>>>5555--555555<<<333>>>5--00------------------------|
G--------------------------------------------------------------------------|
D--------------------------------------------------------------------------|
A--------------------------------------------------------------------------|
E--------------------------------------------------------------------------|


E----0000>>>>0000--000000<<<000>>>0--00------------------------------------|
B----3333>>>>5555--555555<<<333>>>5--00------------------------------------|
G--------------------------------------------------------------------------|
D--------------------------------------------------------------------------|
A--------------------------------------------------------------------------|
E--------------------------------------------------------------------------|


Guitar 2 play the SOLO in 02:42 seconds

E----0--0--0--0--0---0--0--0--0---0--0--0--0--0-0-0-0--0--0--0--0--0--|
B----12-12-12-12-12--13-13-13-13--12-12-10-10-8-8-8-10-10-10-12-12-12-|
G---------------------------------------------------------------------| x2
D---------------------------------------------------------------------|
A---------------------------------------------------------------------|
E---------------------------------------------------------------------|

E----00000<<<000>>>000000<<<000>>>0--00-------------------------------|
B----55555<<<333>>>555555<<<333>>>5--00-------------------------------|
G---------------------------------------------------------------------|
D---------------------------------------------------------------------|
A---------------------------------------------------------------------|
E---------------------------------------------------------------------|

It's oversimplified
It's oversimplified
It's oversimplifieeeeeeeeeeeeeeed


E----0000>>>>0000--000000<<<000>>>0--00-------------------------------|
B----3333>>>>5555--555555<<<333>>>5--00-------------------------------|
G---------------------------------------------------------------------|
D---------------------------------------------------------------------|
A---------------------------------------------------------------------|
E---------------------------------------------------------------------|

E------000000000000000------------------------------------------------|
B------555555555555555------------------------------------------------|
G---------------------------------------------------------------------|
D---------------------------------------------------------------------|
A---------------------------------------------------------------------|
E---------------------------------------------------------------------|

Pull the shades
Razor blades
You're so tragic
I hate you so but love you more
I'm so elastic
The things you say
Games you play
Dirty Magic

Guitar 1 & 2 DISTORTION 03:11

Chorus:
e||-----------------------------------------------------------|
B||-----------------------------------------------------------|
G||--7\9--9-9--9----7\9--9-9--9---------------7--7-7--9-7-7---|
D||--7\9--9-9--9----7\9--9-9--9---5-5--5-7-5--7--7-7--7-7-7---|x3
A||--5\7--7-7--7----5\7--7-7--7---5-5--5-5-5--5--5-5--5-5-5---|
E||-------------------------------3-3--3-3-3------------------|

ahhhhh ahhhhh

e||----------------------------------------0--|
B||----------------------------------------0--|
G||----------------------------------------0--|
D||--7-7--7-7-7--7\10-10-10-10--9-9-9-9----2--|
A||--7-7--7-7-7--7\10-10-10-10--9-9-9-9----2--|
E||--5-5--5-5-5--5\8--8--8--8---7-7-7-7----0--| End


This is my first Guitar Tab.
The song is Easy and perfect to play for 2 guitarist.
Good Luck!!

Xero-P 09-09-2005
comments
print report bad tab
16 comments total. Showing first comments.
+1 reply
Alien_from_a_cd wrote on September 25 2005, 10:04 am

Nice job.

0 reply
basspunk1823 wrote on January 7 2006, 11:53 am

little confusing at first but i figured it out but awesome job 5 stars

+3 reply
GnGonzalesjoe wrote on May 21 2006, 07:23 pm

This part is way too confusing
E--------------------------------------------------------------------------|
B--------------------------------------------------------------------------|
G--------------------------------------------------------------------------|
D--------------------------------------------------------------------------|
A----------------7------7-----------10-----------9----I----2---3--2v-I-----|
E------3->>>--55---5--5---5->>>--88----8--0000--0000000--00------------------------|
B----555555555555--5555555--00------------------------|
G--------------------------------------------------------------------------|
D--------------------------------------------------------------------------|
A--------------------------------------------------------------------------|
E--------------------------------------------------------------------------|

I want to post or [tab]
guest
You may want to rate the tab now too:
select rating
Please do not post tabs as comments. Select "correction" instead!