Oops, an error
Loading. Please wait.

Dirty Magic Tab

version 5
version 5

Whole song

Interactive

313 views 1 this week
no commentswrite comment
1 2 3 4 5
please rate
add to favorites
launch autoscroll
font size
0
reset
how to read this tab
guitar tuner
Tab Pro tools
  • play this tab
  • loop segment
  • change instrument
  • show fretboard
  • metronome
×
Best way to learn
"Dirty Magic"
Autoscroll
slow
fast
+/-
esc
set tempo
stop
Contributor
Difficulty
novice
This is only Noodles Part !

Intro

e ----------------------------------------------------------------|
B ----------------------------------------------------------------|
G ----------------------------------------------------------------|
D ----------------------------------------------------------------|
A -----------7-----7---------10---------9-------2---3-2---2---3-2-|
E -3-3---5-5---5-5---5---8-8----8---7-7---7---0---0-----0---0-----|

Verse 1

e ---------------------------------------------------------------|
B ---------------------------------------------------------------|
G ---------------------------------------------------------------|
D ---------------------------------------------------------------|   x7
A ----------7-----7---------10---------9-------2---3-2---2---3-2-|
E --3---5-5---5-5---5---8-8----8---7-7---7---0---0-----0---0-----|


Chorus

e ---------------------------------------------------------------|
B ---------------------------------------------------------------|
G --7/9-9-9-9-9--7/9-9-9-9--99---------------7-7-7-7--7-7-7------|
D --7/9-9-9-9-9--7/9-9-9-9--99--5-5-5-5-5-5--7-7-7-7--7-7-7------|
A --5/7-7-7-7-7--5/7-7-7-7--77--5-5-5-5-5-5--5-5-5-5--5-5-5------|
E ------------------------------3-3-3-3-3-3----------------------|


e ---------------------------------------------------------------|
B ---------------------------------------------------------------|
G --7/9-9-9-9-9--7/9-9-9-9--99---------------7-7-7-7--7-7-7------|
D --7/9-9-9-9-9--7/9-9-9-9--99--5-5-5-5-5-5--7-7-7-7--7-7-7------|
A --5/7-7-7-7-7--5/7-7-7-7--77--5-5-5-5-5-5--5-5-5-5--5-5-5------|
E ------------------------------3-3-3-3-3-3----------------------|


e ---------------------------------------------------------------|
B ---------------------------------------------------------------|
G --7/9-9-9-9-9--7/9-9-9-9--99---------------7-7-7-7--7-7-7------|
D --7/9-9-9-9-9--7/9-9-9-9--99--5-5-5-5-5-5--7-7-7-7--7-7-7------|
A --5/7-7-7-7-7--5/7-7-7-7--77--5-5-5-5-5-5--5-5-5-5--5-5-5------|
E ------------------------------3-3-3-3-3-3----------------------|


e -------------------------------------0--------------------------|
B -------------------------------------0--------------------------|
G -------------------------------------0--------------------------|
D -7-7--7-7-7-7--10-10-10-10--9-9-9-9--2--------------------------|
A -7-7--7-7-7-7--10-10-10-10--9-9-9-9--2--------------------------|
E -5-5--5-5-5-5--8--8--8--8---7-7-7-7--0-0-0-0-0-0-0-0-0----------|



Verse 2


e ----------------------------------------------------------------|
B ----------------------------------------------------------------|
G ----------------------------------------------------------------|
D ----------------------------------------------------------------|
A -----------7-----7---------10---------9-------2---3-2---2---3-2-|
E -3-3---5-5---5-5---5---8-8----8---7-7---7---0---0-----0---0-----|

----------------------------------------------------------------------------

e ---------------------------------------------------------------|
B ---------------------------------------------------------------|
G ---------------------------------------------------------------|
D ---------------------------------------------------------------|   x5
A ----------7-----7---------10---------9-------2---3-2---2---3-2-|
E --3---5-5---5-5---5---8-8----8---7-7---7---0---0-----0---0-----|


Chorus

e ---------------------------------------------------------------|
B ---------------------------------------------------------------|
G --7/9-9-9-9-9--7/9-9-9-9--99---------------7-7-7-7--7-7-7------|
D --7/9-9-9-9-9--7/9-9-9-9--99--5-5-5-5-5-5--7-7-7-7--7-7-7------|
A --5/7-7-7-7-7--5/7-7-7-7--77--5-5-5-5-5-5--5-5-5-5--5-5-5------|
E ------------------------------3-3-3-3-3-3----------------------|


e ---------------------------------------------------------------|
B ---------------------------------------------------------------|
G --7/9-9-9-9-9--7/9-9-9-9--99---------------7-7-7-7--7-7-7------|
D --7/9-9-9-9-9--7/9-9-9-9--99--5-5-5-5-5-5--7-7-7-7--7-7-7------|
A --5/7-7-7-7-7--5/7-7-7-7--77--5-5-5-5-5-5--5-5-5-5--5-5-5------|
E ------------------------------3-3-3-3-3-3----------------------|


e ---------------------------------------------------------------|
B ---------------------------------------------------------------|
G --7/9-9-9-9-9--7/9-9-9-9--99---------------7-7-7-7--7-7-7------|
D --7/9-9-9-9-9--7/9-9-9-9--99--5-5-5-5-5-5--7-7-7-7--7-7-7------|
A --5/7-7-7-7-7--5/7-7-7-7--77--5-5-5-5-5-5--5-5-5-5--5-5-5------|
E ------------------------------3-3-3-3-3-3----------------------|


e -------------------------------------0--------------------------|
B -------------------------------------0--------------------------|
G -------------------------------------0--------------------------|
D -7-7--7-7-7-7--10-10-10-10--9-9-9-9--2--------------------------|
A -7-7--7-7-7-7--10-10-10-10--9-9-9-9--2--------------------------|
E -5-5--5-5-5-5--8--8--8--8---7-7-7-7--0-0-0-0-0-0-0-0-0----------|


Verse 3

e ----------------------------------------------------------------|
B ----------------------------------------------------------------|
G ----------------------------------------------------------------|
D ----------------------------------------------------------------|
A -----------7-----7---------10---------9-------2---3-2---2---3-2-|
E -3-3---5-5---5-5---5---8-8----8---7-7---7---0---0-----0---0-----|

----------------------------------------------------------------------------

e ---------------------------------------------------------------|
B ---------------------------------------------------------------|
G ---------------------------------------------------------------|
D ---------------------------------------------------------------|   x5
A ----------7-----7---------10---------9-------2---3-2---2---3-2-|
E --3---5-5---5-5---5---8-8----8---7-7---7---0---0-----0---0-----|


Final Chorus

e ---------------------------------------------------------------|
B ---------------------------------------------------------------|
G --7/9-9-9-9-9--7/9-9-9-9--99---------------7-7-7-7--7-7-7------|
D --7/9-9-9-9-9--7/9-9-9-9--99--5-5-5-5-5-5--7-7-7-7--7-7-7------|
A --5/7-7-7-7-7--5/7-7-7-7--77--5-5-5-5-5-5--5-5-5-5--5-5-5------|
E ------------------------------3-3-3-3-3-3----------------------|


e ---------------------------------------------------------------|
B ---------------------------------------------------------------|
G --7/9-9-9-9-9--7/9-9-9-9--99---------------7-7-7-7--7-7-7------|
D --7/9-9-9-9-9--7/9-9-9-9--99--5-5-5-5-5-5--7-7-7-7--7-7-7------|
A --5/7-7-7-7-7--5/7-7-7-7--77--5-5-5-5-5-5--5-5-5-5--5-5-5------|
E ------------------------------3-3-3-3-3-3----------------------|


e ---------------------------------------------------------------|
B ---------------------------------------------------------------|
G --7/9-9-9-9-9--7/9-9-9-9--99---------------7-7-7-7--7-7-7------|
D --7/9-9-9-9-9--7/9-9-9-9--99--5-5-5-5-5-5--7-7-7-7--7-7-7------|
A --5/7-7-7-7-7--5/7-7-7-7--77--5-5-5-5-5-5--5-5-5-5--5-5-5------|
E ------------------------------3-3-3-3-3-3----------------------|


e -------------------------------------0--------------------------|
B -------------------------------------0--------------------------|
G -------------------------------------0--------------------------|
D -7-7--7-7-7-7--10-10-10-10--9-9-9-9--2--------------------------|
A -7-7--7-7-7-7--10-10-10-10--9-9-9-9--2--------------------------|
E -5-5--5-5-5-5--8--8--8--8---7-7-7-7--0--------------------------|



The End.


/ = Slide To
comments
We did not receive enough feedback on this tab! Please rate:
print report bad tab
1 2 3 4 5
I want to post or [tab]
guest
You may want to rate the tab now too:
select rating
Please do not post tabs as comments. Select "correction" instead!