Oops, an error
Loading. Please wait.

Dividing By Zero Tab

version 2
version 2

Whole song

Interactive

1,764 views 6 this week
no commentswrite comment
1 2 3 4 5
please rate
add to favorites
launch autoscroll
font size
0
reset
how to read this tab
guitar tuner
Tab Pro tools
  • play this tab
  • loop segment
  • change instrument
  • show fretboard
  • metronome
×
Best way to learn
"Dividing By Zero"
Autoscroll
slow
fast
+/-
esc
set tempo
stop
Contributor
Difficulty
intermediate
-------------------------------------------------------------------------------
                                               Dividing By Zero - The Offspring
-------------------------------------------------------------------------------
Tabbed by: Chris S.
E-mail: cspaz1@yahoo.com

Tuning: Standard

This is my first tab, hope you guys enjoy it. Great song and honestly I think it
should be played with Slim Pickens Does The Right Thing And Rides The Bomb To Hell.
Feel free to email me any questions, comments, criticisms, etc.


Rhythm, Palm-muted

e|---------------------------------------------------------------------------| 4x
B|---------------------------------------------------------------------------|
G|---------------------------------------------------------------------------|
D|--9--99999-999-7-77-9-99999-999-10-1010------------------------------------|
A|--7--77777-777-5-55-7-77777-777--8--8-8------------------------------------|
E|---------------------------------------------------------------------------|

Lead(with wah) at 3x

e|--12p0---------------------------------------------------------------------|
B|--12p0---------------------------------*Pick Scrape*-----------------------|
G|--12p0---------------------------------------------------------------------|
D|--12p0--------------------------------x\\\\\\\\\\\\\-----------------------|
A|--12p0--------------------------------x\\\\\\\\\\\\\-----------------------|
E|--12p0---------------------------------------------------------------------|

Both guitars, no palm-mute

e|---------------------------------------------------------------------------| 2x
B|---------------------------------------------------------------------------|
G|--9-x-9-x-9-x--9-7-7-9-x-9-x-9-x--9-10-10----------------------------------|
D|--9-x-9-x-9-x--9-7-7-9-x-9-x-9-x--9-10-10----------------------------------|
A|--7-x-7-x-7-x--7-5-5-7-x-7-x-7-x--7--8--8----------------------------------|
E|---------------------------------------------------------------------------|

Verse, Palm-muted

e|---------------------------------------------------------------------------|
B|---------------------------------------------------------------------------|
G|---------------------------------------------------------------------------|
D|--9--99999-999-7-77-9-99999-999-10-1010-9-99999 999-7-77-------------------|
A|--7--77777-777-5-55-7-77777-777--8--8-8-7-77777-777-5-55-------------------|
E|---------------------------------------------------------------------------|

No palm-mute

e|---------------------------------------------------------------------------|
B|---------------------------------------------------------------------------|
G|--12------12------12-------------------------------------------------------|
D|--12--12--12--12--12-------------------------------------------------------|
A|--10--12--10--12--10-------------------------------------------------------|
E|------10------10-----------------------------------------------------------|



e|---------------------------------------------------------------------------|
B|---------------------------------------------------------------------------|
G|---------------------------------------------------------------------------|
D|--9--99999-999-7-77-9-99999-999-10-1010-9-99999 999-7-77-------------------|
A|--7--77777-777-5-55-7-77777-777--8--8-8-7-77777-777-5-55-------------------|
E|---------------------------------------------------------------------------|



e|---------------------------------------------------------------------------|
B|---------------------------------------------------------------------------|
G|--12------12------12-------------------------------------------------------|
D|--12--12--12--12--12-------------------------------------------------------|
A|--10--12--10--12--10-------------------------------------------------------|
E|------10------10-----------------------------------------------------------|

Chorus

e|---------------------------------------------------------------------------| 2x
B|---------------------------------------------------------------------------|
G|--9-9--9--9-9-9--5-5--5--5-5-5-----------------7-7--7--7-7-7---------------|
D|--9-9--9--9-9-9--5-5--5--5-5-5--5-5--5--5-5-5--7-7--7--7-7-7---------------|
A|--7-7--7--7-7-7--3-3--3--3-3-3--5-5--5--5-5-5--5-5--5--5-5-5---------------|
E|--------------------------------3-3--3--3-3-3------------------------------|

Rhythm

e|---------------------------------------------------------------------------| 2x
B|---------------------------------------------------------------------------|
G|--9-x-9-x-9-x--9-7-7-9-x-9-x-9-x--9-10-10----------------------------------|
D|--9-x-9-x-9-x--9-7-7-9-x-9-x-9-x--9-10-10----------------------------------|
A|--7-x-7-x-7-x--7-5-5-7-x-7-x-7-x--7--8--8----------------------------------|
E|---------------------------------------------------------------------------|

Lead(with wah)

e|---------------------------------------------------------------------------| 2x
B|---------------------------------------------------------------------------|
G|--9b99br999b9999br997b7br779b99br999b9999br9910b10br-----------------------|
D|---------------------------------------------------------------------------|
A|---------------------------------------------------------------------------|
E|---------------------------------------------------------------------------|

Verse

e|---------------------------------------------------------------------------|
B|---------------------------------------------------------------------------|
G|---------------------------------------------------------------------------|
D|--9--99999-999-7-77-9-99999-999-10-1010-9-99999 999-7-77-------------------|
A|--7--77777-777-5-55-7-77777-777--8--8-8-7-77777-777-5-55-------------------|
E|---------------------------------------------------------------------------|



e|---------------------------------------------------------------------------|
B|---------------------------------------------------------------------------|
G|--12------12------12-------------------------------------------------------|
D|--12--12--12--12--12-------------------------------------------------------|
A|--10--12--10--12--10-------------------------------------------------------|
E|------10------10-----------------------------------------------------------|



e|---------------------------------------------------------------------------|
B|---------------------------------------------------------------------------|
G|---------------------------------------------------------------------------|
D|--9--99999-999-7-77-9-99999-999-10-1010-9-99999 999-7-77-------------------|
A|--7--77777-777-5-55-7-77777-777--8--8-8-7-77777-777-5-55-------------------|
E|---------------------------------------------------------------------------|



e|---------------------------------------------------------------------------|
B|---------------------------------------------------------------------------|
G|--12------12------12-------------------------------------------------------|
D|--12--12--12--12--12-------------------------------------------------------|
A|--10--12--10--12--10-------------------------------------------------------|
E|------10------10-----------------------------------------------------------|

Chorus

e|---------------------------------------------------------------------------| 4x
B|---------------------------------------------------------------------------|
G|--9-9--9--9-9-9--5-5--5--5-5-5-----------------7-7--7--7-7-7---------------|
D|--9-9--9--9-9-9--5-5--5--5-5-5--5-5--5--5-5-5--7-7--7--7-7-7---------------|
A|--7-7--7--7-7-7--3-3--3--3-3-3--5-5--5--5-5-5--5-5--5--5-5-5---------------|
E|--------------------------------3-3--3--3-3-3------------------------------|

Lead(with wah) at Chorus 3x (Not 100% sure about this part, somewhat hard to hear. Could 
be the same as the earlier part.)

e|---------------------------------------------------------------------------| 2x
B|---------------------------------------------------------------------------|
G|--9b99br999b9999br999b9br999b99br999b9999br999b9br99-----------------------|
D|---------------------------------------------------------------------------|
A|---------------------------------------------------------------------------|
E|---------------------------------------------------------------------------|


Rhythm, Palm-muted

e|---------------------------------------------------------------------------| 4x
B|---------------------------------------------------------------------------|
G|---------------------------------------------------------------------------|
D|--9--99999-999-7-77-9-99999-999-10-1010------------------------------------|
A|--7--77777-777-5-55-7-77777-777--8--8-8------------------------------------|
E|---------------------------------------------------------------------------|

Lead, Solo

e|----------------------------------------------------------------------------------| 2x
B|-12-12~--12~--12-12/13--12-12~--12/13--12-10\9-9-9~--9/10--9-6\5-5-5~--5~--5-5-5--|
G|----------------------------------------------------------------------------------|
D|----------------------------------------------------------------------------------|
A|----------------------------------------------------------------------------------|
E|----------------------------------------------------------------------------------|

Post Solo, Both Guitars

e|---------------------------------------------------------------------------|
B|---------------------------------------------------------------------------|
G|--9--------7-9--------7-9--------12------12------12------------------------|
D|--9--------7-9--------7-9--------12--12--12--12--12------------------------|
A|--7--------5-7--------5-7--------10--12--10--12--10------------------------|
E|-------------------------------------10------10----------------------------|

Rhythm, Palm Muted

e|---------------------------------------------------------------------------|
B|---------------------------------------------------------------------------|
G|---------------------------------------------------------------------------|
D|--9--99999-999-7-77-9-99999-999-10-1010-9-99999 999-7-77-------------------|
A|--7--77777-777-5-55-7-77777-777--8--8-8-7-77777-777-5-55-------------------|
E|---------------------------------------------------------------------------|

Lead, with wah

e|-----------------------------------------------------------------------------------|
B|-----------------------------------------------------------------------------------|
G|--9b99br999b9999br997b7br779b99br999b9999br9910b10br10109b99br999b9999br997b7br77--|
D|-----------------------------------------------------------------------------------|
A|-----------------------------------------------------------------------------------|
E|-----------------------------------------------------------------------------------|

Both Guitars

e|---------------------------------------------------------------------------|
B|---------------------------------------------------------------------------|
G|--12------12------12---12------12------12----------------------------------|
D|--12--12--12--12--12---12--12--12--12--12----------------------------------|
A|--10--12--10--12--10---10--12--10--12--10----------------------------------|
E|------10------10-----------10------10--------------------------------------|

Chorus

e|---------------------------------------------------------------------------| 4x
B|---------------------------------------------------------------------------|
G|--9-9--9--9-9-9--5-5--5--5-5-5-----------------7-7--7--7-7-7---------------|
D|--9-9--9--9-9-9--5-5--5--5-5-5--5-5--5--5-5-5--7-7--7--7-7-7---------------|
A|--7-7--7--7-7-7--3-3--3--3-3-3--5-5--5--5-5-5--5-5--5--5-5-5---------------|
E|--------------------------------3-3--3--3-3-3------------------------------|

Lead(with wah) at Chorus 3x

e|---------------------------------------------------------------------------| 2x
B|---------------------------------------------------------------------------|
G|--9b99br999b9999br999b9br999b99br999b9999br999b9br99-----------------------|
D|---------------------------------------------------------------------------|
A|---------------------------------------------------------------------------|
E|---------------------------------------------------------------------------|

Outro                               Gradually begin to lift palm

e|----------------------------------------|--------------|-------------------|
B|----------------------------------------|--------------|-------------------|
G|---------------------------------------------------------9\----------------|
D|--9--99999-999-7-77-9-99999-999-10-1010-9-99999 999-7-77-9\----------------|
A|--7--77777-777-5-55-7-77777-777--8--8-8-7-77777-777-5-55-7\----------------|
E|---------------------------------------------------------------------------|


************************************

| /   slide up
| \   slide down
| p   pull-off
| x   Mute note
| ~   vibrato
| b   Bend
| br  Bend release
| x\  Pick Scrape

************************************
comments
We did not receive enough feedback on this tab! Please rate:
print report bad tab
1 2 3 4 5
I want to post or [tab]
guest
You may want to rate the tab now too:
select rating
Please do not post tabs as comments. Select "correction" instead!