Oops, an error
Loading. Please wait.

Dui bass

version 2
version 2

Whole song

Interactive

129 views 1 this week
no commentswrite comment
1 2 3 4 5
3 more votes to show rating
add to favorites
×
Save as Personal and add changes to this tab that will be seen only by you. Learn more ›
×
You can save this tab as Personal to edit and correct it or add notes. All changes will be seen only by you. Learn more »
launch autoscroll
font size
0
reset
guitar tuner
edit
Autoscroll
slow
fast
+/-
esc
set tempo
stop
Author
+++++++++++++++++++++++++
| The Offspring- D.U.I. |
+++++++++++++++++++++++++


"Feel so alive doing 95..."


Tuning: Standard EADG



Intro
1.
G|----------------------------------------------|
D|----------------------------------------------|
A|-2----55----77----0001-2----55----77----0001--|
E|----------------------------------------------|

Verse
"Three in the morning..."
2.
G|-----------------------------------------|
D|-----------------------------------------|
A|-2222-5555-7777-0001-2222-5555-7777-0001-|--x2
E|-----------------------------------------|

Pre-Chorus
"Cops they took my licence away..."
3.
G|-------------------------------------------------------------------------|
D|-------------------------------------------------------------------------|
A|-2-22----555-------2-22----555-------2-22----555-------2-22----5x--------|
E|-----3-33----5-555-----3-33----5-555-----3-33----5-555-----3-33----------|

Chorus
"Feel so alive..."
4.
G|---------------------------------------------------------------------------------|
D|---------------------------------------------------------------------------------|
A|-2-22-555-7-777-0001-2-22-555-7-777-0001-2-22-555-7-777-0001-2-22-555-7-777-0001-|
E|---------------------------------------------------------------------------------|

Outro
5.
G|---------------------------------------------------------------|
D|---------------------------------------------------------------|
A|-2----55----------0001-2----55----------0001--2~---------------|
E|------------00--------------------00---------------------------|

Verse
"Early in the morning..."
6.
G|-----------------------------------------|
D|-----------------------------------------|
A|-2222-5555-7777-0001-2222-5555-7777-0001-|--x4
E|-----------------------------------------|

Pre-Chorus
"Designate someone other than me..."
7.
G|-------------------------------------------------------------------------|
D|-------------------------------------------------------------------------|
A|-2-22----555-------2-22----555-------2-22----555-------2-22----5x--------|
E|-----3-33----5-555-----3-33----5-555-----3-33----5-555-----3-33----------|

Chorus
"Feel so alive..."
8.
G|---------------------------------------------------------------------------------|
D|---------------------------------------------------------------------------------|
A|-2-22-555-7-777-0001-2-22-555-7-777-0001-2-22-555-7-777-0001-2-22-555-7-777-0001-|
E|---------------------------------------------------------------------------------|

"My friends all cringe..."
9.
G|--------------------------------------------------------------------------|
D|-------------------------------------------------------44444444-4x--------|
A|-2-22222-5-5555555-------------------2-22222-5-5555555--------------------|
E|-------------------3-33333-5-5555555--------------------------------------|

Bridge
10.
G|---------------------------------------------|
D|---------------------------------------------|
A|-2----55----------0001-2----55----------0001-|--x2
E|------------00--------------------00---------|

Pre-Chorus
"Cops they took my licence away..."
11.
G|-------------------------------------------------------------------------|
D|-------------------------------------------------------------------------|
A|-2-22----555-------2-22----555-------2-22----555-------2-22----5x--------|
E|-----3-33----5-555-----3-33----5-555-----3-33----5-555-----3-33----------|

Chorus
"Feel so alive..."
12.
G|---------------------------------------------------------------------------------|
D|---------------------------------------------------------------------------------|
A|-2-22-555-7-777-0001-2-22-555-7-777-0001-2-22-555-7-777-0001-2-22-555-7-777-0001-|
E|---------------------------------------------------------------------------------|

"My friends all cringe..."
13.
G|--------------------------------------------------------------------------|
D|-------------------------------------------------------44444444-4x--------|
A|-2-22222-5-5555555-------------------2-22222-5-5555555--------------------|
E|-------------------3-33333-5-5555555--------------------------------------|

Outro
14.
G|----------------------------------|
D|----------------------------------|
A|-2~-------------------------------|
E|----------------------------------|


Please rate thanks!!


Lyrics:

Three in the morning and I gotta be someplace, 
I don't remember where 
friends try to make me stay, or call me a cab home, 
I grab my keys and a beer 

Cops they took my licence away, 
got my car out of impound today 
I've been drunk since last saturday, 
better stay out of my way 

I drink and drive 
Feel so alive 
Never take that dive 
Feel so alive 
Doing 95 
I drink and drive 
Feel so alive 
I drink and drive 

Early in the morning and the freeway's deserted, like its all mine 
I'm trying to set a new drunken speed record, 
but I can't drive a straight line 
Flashing lights, split the night 
I'm tossing bottles as I swerve to the right 
now I've slammed my face into the back of a big rig 
At least you'll never get me, you fucking pigs! 
Designate someone other than me, 
Im so drunk I can hardly see 
Another shot of jager and I turn the key, 
I got so many places to be 

When Im on a binge, my friends all cringe 
They won't drive at night 
Cause way down on the freeway it's such a fright 
But I think I drive alright



+++++++++++++++++++++++++++++++++
| Raileff                       |
| Underground__Dora@Hotmail.Com |
+++++++++++++++++++++++++++++++++
Suggest correction
Creating personal tab
Creating personal tab
You can edit any tab online and save it as your Personal.

You can edit, replace or remove any tab part or add personal notes – all changes will be seen only by you.

Personal tabs can be accessed anytime from any device, even offline.
Learn more »
Give kudos to tab author, rate the tab!
1 2 3 4 5
comments
print report bad tab
guest
You may want to rate the tab now too:
select rating
Wanna post a correction for this tab? Suggest correction