Oops, an error
Loading. Please wait.
We have an official Get It Right tab made by UG professional guitarists. Check out the tab »
×
684 views 1 this week
no commentswrite comment
1 2 3 4 5
3 more votes to show rating
add to favorites
×
Save as Personal and add changes to this tab that will be seen only by you. Learn more ›
×
You can save this tab as Personal to edit and correct it or add notes. All changes will be seen only by you. Learn more »
launch autoscroll
font size
0
reset
guitar tuner
edit
Autoscroll
slow
fast
+/-
esc
set tempo
stop
Author
+++++++++++++++++++++++++++++++
| The Offspring- Get It Right |
+++++++++++++++++++++++++++++++

EADG

Intro.
1.
G|----|
D|----|
A|----|
E|-1~-|

2.
G|-----------------------------11-----------|
D|-3333-55665-1111-55665-----11--1-33333333-|
A|-----------------------4444---------------|  x2
E|------------------------------------------|

Verse
"I've been told.."   x2
3.
G|--------------------------------------------------------|
D|-3-33-33-3333-1-11-11-1111---------1-11-11-3-33-33-3333-|
A|---------------------------4-44-44----------------------|
E|--------------------------------------------------------|

"Look out boy"
4.
G|-------------------------------------------|
D|-333333333-111111111-------11111-333333333-|
A|---------------------44444-----------------|
E|-------------------------------------------|

"But I'll look out the window.."
5.
G|-------------------------------------------|
D|-333333333-111111111-----------------------|
A|---------------------44444-11111-333333333-|
E|-------------------------------------------|

Chorus
"Still can't get it.."  x3
6.
G|----111111-----------|
D|-333-------111-------|
A|--------------111111-|
E|---------------------|

7.
G|-----------------------|
D|-----------------------|
A|-444444444-44444-66666-|
E|-----------------------|

Intro
Verse
Chorus

"No way out.." 1:09
8.
G|-----------------------------------------|
D|-----------------------------------------|
A|-666666666-444444444---------------------|
E|---------------------111111111-111111111-|

9.
G|-----------------------------------------|
D|-----------------------------------------|
A|-666666666-444444444-111111111-333333333-|
E|-----------------------------------------|

"No way out.." 2:15
10.
G|---------------------------|
D|-3~-----1~---------1~---3~-|
A|---------------4~----------|
E|---------------------------|

11.
G|-------------------------------------------|
D|-333333333-111111111-------11111-333333333-|
A|---------------------44444-----------------|
E|-------------------------------------------|

Finishes:

"I swear I'll never get it, never, never, never, never.."
12.
G|--------------------|
D|--------------------|
A|-4-4-4-4-6-6-6-6----|
E|-----------------1~-|

Lyrics

I've been told that
to get what you want
You just gotta give what you can
But I know for what I want it
Don't come as easy as that

Look out boy
Tomorrow comes
And things will look better by then
But I'll look out the window
Then look in the mirror
At the same old me again

Still can't get it..
And for all I know
I swear I'll never will

Do you think you'd sell your soul
To just have one thing to turn out right?
For the thousandth time you turn and find
That it just makes no difference to try
Like Holden Caulfield I tell muself
There's gotta be a better way
Then I lay in bed and 
Stare at the ceiling
Dream of brighter days...


No way out.. 
Same old stuff always drags me down..
No way out.. Never gonna get it..


No way out.. No way out..
Sill can't get it..

I swear I'll never get it
never
never
never
never

+++++++++++++++++++++++++++++++++
| RaiLeff                       |
| Underground__Dora@hotmail.com |
+++++++++++++++++++++++++++++++++
Suggest correction
Creating personal tab
Creating personal tab
You can edit any tab online and save it as your Personal.

You can edit, replace or remove any tab part or add personal notes – all changes will be seen only by you.

Personal tabs can be accessed anytime from any device, even offline.
Learn more »
Give kudos to tab author, rate the tab!
1 2 3 4 5
comments
print report bad tab
guest
You may want to rate the tab now too:
select rating
Wanna post a correction for this tab? Suggest correction