Oops, an error
Loading. Please wait.
We have an official Gone Away tab made by UG professional guitarists. Check out the tab »
×
3,703 views 1 this week
5 commentsread comments
1 2 3 4 5
x 4
add to favorites
×
Save as Personal and add changes to this tab that will be seen only by you. Learn more ›
×
You can save this tab as Personal to edit and correct it or add notes. All changes will be seen only by you. Learn more »
launch autoscroll
font size
0
reset
how to read this tab
guitar tuner
backing track
0:00
0:00
edit
Autoscroll
slow
fast
+/-
esc
set tempo
stop
Author
Tuning: Standard

Title: Gone Away
Artist: The Offspring
Album; Ixnay on the Hombre

~~=let ring
h= hammer on
p= pull off
/= slide

e|-----------------------------------------------------------------|
b|-----------------------------------------------------------------|
g|-10-10-10-10-10-10-10-10-13-13-13-13-13-13-13-13-8-8-8-8-8-8-8-8-|
d|-10-10-10-10-10-10-10-10-13-13-13-13-13-13-13-13-8-8-8-8-8-8-8-8-|
a|--8--8--8--8--8--8--8--8-11-11-11-11-11-11-11-11-6-6-6-6-6-6-6-6-|
E|-----------------------------------------------------------------|

Intro cont.

e|------------------|
b|------------------|
g|------------------|
d|-8-8-8-8-8-8-8-8--|
a|-8-8-8-8-8-8-8-8--|
E|-6-6-6-6-6-6-6-6--|

2nd time
e|-----------------------------------------------------------------|
b|-----------------------------------------------------------------|
g|-10-10-10-10-10-10-10-10-13-13-13-13-13-13-13-13-8-8-8-8-8-8-8-8-|
d|--x--x--x--x--x--x--x--x--x--x--x--x--x--x--x--x-x-x-x-x-x-x-x-x-|
a|--8--8--8--8--8--8--8--8-11-11-11-11-11-11-11-11-6-6-6-6-6-6-6-6-|
E|-----------------------------------------------------------------|

e|----------------------|
b|----------------------|
g|----------------------|
d|-8-8-8-8-8-8-8-8~~~~~~|
a|-x-x-x-x-x-x-x-x~~~~~~|
E|-6-6-6-6-6-6-6-6~~~~~~|

e|--------------------------------------------|
b|--------------------------------------------|
g|--------9---------7---------5--7--3--3--3/7-|
d|-7h9p7-----5h7p5-----5h7p5------------------|
a|--------------------------------------------|
E|--------------------------------------------|

verse

guitar rests while bass plays

chorus

e|-----------------------------------------------------------------|
b|-----------------------------------------------------------------|
g|-10-10-10-10-10-10-10-10-13-13-13-13-13-13-13-13-8-8-8-8-8-8-8-8-|
d|--x--x--x--x--x--x--x--x--x--x--x--x--x--x--x--x-x-x-x-x-x-x-x-x-|
a|--8--8--8--8--8--8--8--8-11-11-11-11-11-11-11-11-6-6-6-6-6-6-6-6-|
E|-----------------------------------------------------------------|

e|----------------------|
b|----------------------|
g|----------------------|
d|-8-8-8-8-8-8-8-8------|
a|-x-x-x-x-x-x-x-x------|
E|-6-6-6-6-6-6-6-6------|x4 fourth time let the last chord ring

e|-------9-------7------5--7--3--3--3/7--------|
b|-7h9p7---5h7p5--5h7p5------------------------|
g|---------------------------------------------|
d|---------------------------------------------|
a|---------------------------------------------|
E|---------------------------------------------|

chorus

e|-----------------------------------------------------------------|
b|-----------------------------------------------------------------|
g|-10-10-10-10-10-10-10-10-13-13-13-13-13-13-13-13-8-8-8-8-8-8-8-8-|
d|--x--x--x--x--x--x--x--x--x--x--x--x--x--x--x--x-x-x-x-x-x-x-x-x-|
a|--8--8--8--8--8--8--8--8-11-11-11-11-11-11-11-11-6-6-6-6-6-6-6-6-|
E|-----------------------------------------------------------------|

e|----------------------|
b|----------------------|
g|----------------------|
d|-8-8-8-8-8-8-8-8------|
a|-x-x-x-x-x-x-x-x------|
E|-6-6-6-6-6-6-6-6------|x4 fourth time let the last chord ring

            
            
Suggest correction
Creating personal tab
Creating personal tab
You can edit any tab online and save it as your Personal.

You can edit, replace or remove any tab part or add personal notes – all changes will be seen only by you.

Personal tabs can be accessed anytime from any device, even offline.
Learn more »
comments
print report bad tab
5 comments total. Showing first comments.
0 reply
Jacob Jauregui 10 Dec 18, 2006 10:50 AM

Its okay wow version six i wish they had more of the original songs that are correct rather than all these versions

0 reply
Gtdude 10 Dec 31, 2006 04:29 PM

Great song by the Offspring and a great tab
Well Done

0 reply
Gtdude 10 Apr 13, 2007 02:57 AM

Great Job
there are a few small mistakes but anyway it is really good

guest
You may want to rate the tab now too:
select rating
Wanna post a correction for this tab? Suggest correction