Oops, an error
Loading. Please wait.
We have an official Gotta Get Away tab made by UG professional guitarists. Check out the tab »
×
18,296 views 12 this week
3 commentsread comments
1 2 3 4 5
x 13
add to favorites
×
Save as Personal and add changes to this tab that will be seen only by you. Learn more ›
×
You can save this tab as Personal to edit and correct it or add notes. All changes will be seen only by you. Learn more »
launch autoscroll
font size
0
reset
guitar tuner
backing track
0:00
0:00
edit
Autoscroll
slow
fast
+/-
esc
set tempo
stop
Author
Unregistered
Bass Tab For Offspring's "Gotta Get Away", from the album Smash.

Standard Tuning.

[Intro]
G |-----------------|-----------------||
D |-----------------|-----------------||
A |-3-4-5-5-5-5-5-5-|---5-7-----7-7---||
E |-----------------|-O-----O-O-----O-||

[Verse]
G |-----------------|-----------------|-----------------|---------------||
D |-----------------|-----------------|-----5-5-----7-7-|---------------||
A |-----5-5-----5-5-|-----7-7-----7-7-|-----------------|-7-7-7-8-7-8-7-||
E |-O-O-----O-O-----|-O-O-----O-O-----|-O-O-----O-O-----|---------------||

[Chorus]
G |-----------------|-----------------||
D |-----------------|-5-5-5-----------||
A |-7-7-7-O-3-3-3-O-|-------O-5-5-5-6-||
E |-----------------|-----------------||

Play like this:

Drum Intro: pause for space of 2 Intros. (4 bars)
repeat [Intro] 8 times.
repeat [Verse] 6 times.
repeat [Chorus] 4 times
repeat [Verse] 6 times.
repeat [Chorus] 6 times.
Drum and Lead Guitar: pause for space of 2 Verses. (8 bars)
repeat Verse 2 times.
repeat Chorus 8 times.

            
            
Suggest correction
Creating personal tab
Creating personal tab
You can edit any tab online and save it as your Personal.

You can edit, replace or remove any tab part or add personal notes – all changes will be seen only by you.

Personal tabs can be accessed anytime from any device, even offline.
Learn more »
comments
print report bad tab
3 comments total.
0 reply
SiggyBond23 41 Jan 14, 2012 08:10 AM

Close enough, but the intro is more like this:

G |-------------------|-----------------|
D |-------------------|-----------------|
A |--/5-5-5-5-5-5-2-5-|-7----7-7-------|
E |-------------------|---0-0-----0-0-0-|

guest
Wanna post a correction for this tab? Suggest correction