Oops, an error
Loading. Please wait.
We have an official Gotta Get Away tab made by UG professional guitarists. Check out the tab »
×
25,107 views 15 this week
11 commentsread comments
1 2 3 4 5
x 35
add to favorites
×
Save as Personal and add changes to this tab that will be seen only by you. Learn more ›
×
You can save this tab as Personal to edit and correct it or add notes. All changes will be seen only by you. Learn more »
launch autoscroll
font size
0
reset
how to read this tab
guitar tuner
backing track
0:00
0:00
edit
Autoscroll
slow
fast
+/-
esc
set tempo
stop
Author
Intro:
e|------------------------------------------
B|---------8-8-7--5-------------8-8-10------
G|--7-7-7--7-7-7--4------7-7-7--7-7--7------    X2
D|------------------------------------------
A|------------------------------------------
E|------------------------------------------

Main Riff/Verse
     D5        E5       G5         A5       E5         
e|-----------------------------------------------------------
B|-----------------------------------------------------------
G|----7-7------9-9------12-12------14-14-----9-9-10-9-10-9---
D|----7-7------9-9------12-12------14-14-----9-9--9-9--9-9---
A|----5-5------7-7------10-10------12-12-----7-7--7-7--7-7---
E|--0------0-0------0-0--------0-0-------0-0-----------------
            For verse PM the    *** Notice the 10 on the G string
            low open E notes.      

CHORUS
   E5           C5              G5              D5
e|----------------------------------------------------------------
B|----------------------------------------------------------------
G|--9--9--9--9------------------12--12--12--12--------------------
D|--9--9--9--9--10--10--10--10--12--12--12--12--12--12--12--12----
A|--7--7--7--7--10--10--10--10--10--10--10--10--12--12--12--12----
E|---------------8---8---8---8------------------10--10--10--10----

         Questions, comments, corrections, love stories, etc.
         Contact accuratetabs_danc@yahoo.com

            
            
Suggest correction
Creating personal tab
Creating personal tab
You can edit any tab online and save it as your Personal.

You can edit, replace or remove any tab part or add personal notes – all changes will be seen only by you.

Personal tabs can be accessed anytime from any device, even offline.
Learn more »
comments
print report bad tab
11 comments total. Showing first comments.
+1 reply
danc446 970 Dec 24, 2002 07:00 PM

Sorry guys, this is dan c. ive forgotten to mention that the 7s on the G string are Harmonics,,,,

0 reply
Tijy 20 Jun 25, 2004 08:00 PM

...what harmonics? there are no harmonics, offspring doesnt use many harmonics IF ANY. neway, most of the tab is 5* material EXCEPT in the main verse/main riff, it should be
-------------
G|--77--77----99--
D|--77--77----99--
A|--55--55----77--
E|00--00----00---- ....the rest is good.good tab, just a slight

correction. keep up the tabbing =)

0 reply
ndfcartman 90 Dec 03, 2004 07:00 PM

i agree with tijy, but i was tryin out the tab, and i was wondering if the intro should be like this
e|------------------------------------------
B|---------8-8-7--5-------------8-8-10?5----
G|--7-7-7--7-7-7--4------7-7-7--7-7--7-4----
other than that, awesome tab dude

guest
You may want to rate the tab now too:
select rating
Wanna post a correction for this tab? Suggest correction