Oops, an error
Loading. Please wait.

Greatest Hits Bass Tab

7,341 views 3 this week
12 commentsread comments
1 2 3 4 5
accurate
x 18
add to favorites
launch autoscroll
font size
0
reset
guitar tuner
Tab Pro tools
  • play this tab
  • loop segment
  • change instrument
  • show fretboard
  • metronome
×
Best way to learn
"Greatest Hits"
Autoscroll
slow
fast
+/-
esc
set tempo
stop
Contributor
The Offspring - Greatest Hits

All songs in Standard Tuning

The format of how i have shown all these tabs varies towards the end because
I changed the style of how i show tabs.

Please rate accordingly as this took alot of time.


Can't Repeat


Intro:

G-----------------------------------------------------------|
D-----------------------------------------------------------|
A-----------------3-33-333-3333-----------------------------|  (x1)
E-1/5-55-555-5555---------------1-11-111-1111-3-33-333-3333-|

G--------------------------------------------|
D--------------------------------------------|
A-----------33333333333----------------------|   (x3)
E-555555555-------------111111111-3333333333-|

Verse:

G-----------------------------------------------------------------|
D-----------------------------------------------------------------|
A-----------------333-333-333-333---------------------------------|   (x2)
E-555-555-555-555-----------------111-111-111-111-333-333-333-333-|

Chorus:

G---------------------------------------------|
D-----------------------33333333333-555555555-|
A-----------33333333333-----------------------|   (x2)
E-555555555-----------------------------------|

Bridge:

G------------------------------------------------------|
D------------------------------------------------------|
A---------------3-33-333-3333-3333-----------------3---|
E-5-55-555-5555--------------------1-11-111-1111-----3-|

Ending:

G---
D---
A---
E-5-

intro
verse
chorus
intro
chorus
bridge
chorus
intro
ending


Come Out And Play (Keep 'Em Seperated)

Intro & Chorus

G----------|
D----------|
A-2-5------|
E-----2-5--|

Bass during solo

G--------------------------|
D--------------------------|
A-2--2-2--0-2-2-2-----5----|
E--------2--------2-2------|

Verse

G-------------------------|
D-------------------------|
A-2--2-2---0-2-2-2-5------|
E--------2-----------2-5--|

Pre-chorus

G-----------------------|
D-2-2/-5--5-5-4-4-4-----|
A-------------------2-5-|
E-----------------------|

PLAY THE VERSE THEN THIS BRIDGE

G----------------|
D-4444-4444-444--|
A----------------|
E----------------|

Play the verse again then this
RIFF

G---------------------------------------------------|
D---------------------------------------------------|
A-2-5-----2-5-----9-9-9-9-9-9--7-7-7-7--2-5-----2---|
E-----2-5-----2-5---------------------------2-5-----|


Self Esteem - I put each part of the song as a riff because i couldn't
              figure out what bit is verse chorus etc. LOL

Riff 1

G--------------------------------------------------------------------|
D--------------------------------------------------------------------|
A-----88-8-8----------------88-8-8-----------------------------------|
E-5-5--------8-8-33-3-3-5-5--------8-8--33-3-3-\-1111111111--5-5-5-5-|

Riff 2

G--------------------------------------------------------|
D-7-7-7-7-7-7-------------10-10-10-10-10-10--5-5-5-5-5-5-|
A-------------8-8-8-8-8-8--------------------------------|
E--------------------------------------------------------|

Riff 3

G------------------------|
D------------------------|
A-----88-8-8-------------|
E-5-5--------8-8--33-3-3-|

Riff 4

G--------------------------|
D--------------------------|
A-5-5--11-1-1------33-3-3--|
E--------------1-1---------|

Riff 5

G----------------------|
D----------------------|
A----------------------|
E-1111111111--5-5-5-5--|

And the order is :
Riff 1x1
Riff 2x10
Riff 3x4
Riff 2x4
Riff 3x4
Riff 4x7
Riff 5x1
Riff 2x10
Riff 3x4
Riff 4x7
Riff 5x1


Gotta Get Away - not exactly hard to play LOL

Intro

G----------------------------------|
D----------------------------------|
A-----5-5-5-5-5-5-5-5-----7------7-|
E-0-0-----------------0-0---0--0---|

Verse

G------------------------------------------------------------------|
D------------------------------------------------------------------|
A-----5-5-----5-5-----7-7-----7-7-----10-10----12-12--7--7-7-7-7-7-|
E-0-0-----0-0-----0-0-----0-0-----0-0-------0-0--------------------|

Chorus

G---------------------------------|
D-----------------5-5-5-5---------|
A-7-7-7-7-3-3-3-3---------5-5-5-5-|
E---------------------------------|


All I Want

Intro & Verse - the guitar changes but the bass continues to repeat

G---------------------------------------|
D-----------------------------------7---|
A-999799--7-55557777-999799--7-5555---7-|
E---------------------------------------|

Chorus

G------------------------------------|
D------------------------------------|
A-99-9999755-55555----------77-77777-|
E------------------55-55555----------|

Bridge

G--------------------------------------------------|
D--------------------------------------------------|
A-5-55-57-----99-77-----55-57-7-5-5(x14)-4-4(x14)--|
E--------------------------------------------------|

Ending

G------------------------------------------------------|
D------------------------------------------------------|
A-99-9999755-55555-99-9999755-55555----------77-77-7-9-|
E-----------------------------------55-55555-----------|


Gone Away

Intro & Chorus

G-------------------------------------|
D-------------------------------------|
A-88888888----------66666668----------|
E----------44444444----------66666666-|

Verse & Bridge

G----------------------------------|
D----------------------------------|
A----------------366666668---------|
E-111111134444444---------66666643-|

Outro - play fast

G------------------------------|
D------------------------------|
A-66666666-6666666666666666----|
E---------------------------1~-|


Pretty Fly (For A White Guy)

Main riff & Verse

G--------------------------|
D-----------------0h2-0----|
A---2--2---0--2--2---------|
E-------2------------------|

Chorus

G------------------------------------------------------|
D-------3-4-3-4-----3-4-3-4------------0-2-2-2---------|
A---2--2--------2--2--------5--5-0--5----------5--0----|
E------------------------------------------------------|

G------------------------------------------------------|
D-------3-4-3-4-----3-4-3-4------------2--2-0-2-3-2-0--|
A---2--2--------2--2--------5--5-0--5------------------|
E------------------------------------------------------|

G------------------------------------------------------|
D-------3-4-3-4-----3-4-3-4------------0-2-2-2---------|
A---2--2--------2--2--------5--5-0--5----------5--0----|
E------------------------------------------------------|

G----------------------------------------------|
D--5--5-0--5-------------------4-3-2---0-2-----|
A--------------------------2-2-------2-----2---|
E--------------5--5-0--5-----------------------|

Bridge

G-----------------------4------------|
D-----------------------------2--0---|
A--2----0-2---0-2---0-2-----2--------|
E------------------------------------|

G-----------------------4-2---2---------|
D---------------------------4---4-2-0---|
A--2----0-2---0-2---0-2-----------------|
E---------------------------------------|


Why Don't You Get A Job - played with a ska happy jumpy feeling LOL!

Verse - play all notes x6

G---------------------------------------------------------------|
D---------------------------------------------------------------|
A---------1---1-----------3---3-----------1---1-------3---------|
E-1---1-----------1---1-----------1---1-----------1-------1---1-|

Chorus

G------------------------------0------------------------------|
D-3-3-0---0-3-0------------0-3---3--3-0--------0-3--3-0---0-3-|
A-------3-------3--1-1-1-3---------------3-3-3----------3-----|  (x2)
E-------------------------------------------------------------|

Play verse and chorus.

Chorus (it's like a bridge to the bridge)

G-----------------------------0---------------------------------|
D-3-3-0---0-3-0-----------0-3---3--3-0-------0-3--3-0---0-3-0---|
A-------3-------3-1-1-1-3--------------3-3-3----------3-------3-|
E---------------------------------------------------------------|

Bridge (Well, I guess it ain't easy...)

G-----------------------------------------------------------------|
D-------3-5-3-2-3-------3-5-3-2-3-----------------3-3-2-2-0-0-----|
A-1-1-1-----------1-1-1-------------------2-3-2-3-------------3-3-|
E---------------------------------1-1-1-1-------------------------|

-----------------------------------------------------------------|
-------3-5-3-2-3-------3-5-3-2-3---------------------------------|
-1-1-1-----------1-1-1---------------------------3-3-3-3-3-1-0---|
---------------------------------3-3-3-3-3-3-3-3---------------3-|

Then play verse and chorusX3.

Chorus *=play x14 before it ends with the trumpet

G-----------------------------0------------------------------------------|
D-3-3-0---0-3-0-----------0-3---3--30-------0--*-------------------------|
A-------3-------3-1-1-1-3-------------3-3-3---3----------------3-1-0-----|
E--------------------------------------------------------------------3-1-|


The Kids Aren't Alright

Intro/Verse

G--------------------------------------|
D--------------------------------------|
A-1--1-3-4------3-4------1-3-4-6-4-3-4-|
E----------2--2-----4------------------|

G--------------------------------------|
D--------------------------------------|
A-11111111----------444444444----------|
E----------22222222-----------44444444-|

Chorus

G--------------------------------------|
D----------44444444--------------------|
A-11111111----------444444444----------|
E-----------------------------44444444-|

Intro(x2)
Verse(x2)
Chorus(x2)
Intro(x2)
Verse(x2)
Chorus(x2)
Intro(x2)
Chorus(x2)


Original Prankster

Intro

G------------------------|
D------------------------|
A-00300-5----00300-55353-|
E------------------------|

Verse

G---------------|
D---------------|
A-0303-55353----|
E---------------|

Chorus1:

G-------------------|
D-----2-1-0-0---0---|
A-0-3---------3---3-|
E-------------------|

"Knock down the world"

Chorus2

G--------|
D--------|
A-0-0----|
E--------|

"Prankster"
"Breakout"
"Stop now

ORDER1:
Intro  :x1
Verse  :x10
Chorus1:x3
Chorus2:x5
Verse  :x10
Chorus1:x3
Chorus2:x5
Intro  :x1
Verse  :x7
Chorus1:x3
Chorus2:x5


Want You Bad - Figure out the order it really isn't difficult

Intro

G-----------------------|
D-----------------------|
A-7-7------------4---2--|  x4
E------7-7---5-5--------|

G-------------------------------|
D-------------------------------|
A-7777777777777777777777777777--|
E-------------------------------|

Verse

G----------------------------------------------------------------------------|
D----------------------------------------------------------------------------|
A-7777777777777777--4444444444444444--2222222222222222-----------------------|
E-------------------------------------------------------5-55-4-44-5-55-7-77--|

Prechorus

G---------------------------------|
D---------------------------------|
A-------------------------7-7-7-7-|
E-5-5-5-5-7-7-7-7-9-9-9-9---------|

G---------------------------------|
D---------------------------------|
A---------------------------------|
E-5-5-5-5-7-7-7-7-9-9-9-9--x7-----|

Chorus

G--------------------------------------------------------------------------|
D--------------------------------------------------------------------------|
A-7-7-7-7-7-7-7-7-7--4-4-4-4-4-4-4-4-4--2-2-2-2-2-2-2-2--------------------|
E--------------------------------------------------------5-5-4-4-5-5-7-7---|

G--------------------------------------------------------------------------|
D--------------------------------------------------------------------------|
A-7-7-77-7-7-7-77-7--4-4-4-4-4-4-4-4-4--2-2-2-2-2-2-2-2--------------------|
E--------------------------------------------------------555-444-555-777---|

Fill 2

G----------------------------------|
D----------------------------------|
A-7777777777777777777777-7x---7\---|
E----------------------------------|

Bridge (ring notes)

G----------------------------------------------------------------------|
D--------------------2-----------------------------2-------------------|
A--2*----2-----0---------------2*-----2------0------------2/12---------|
E----------------------------------------------------------------------|

Solo PART 1

G---------------------------------------------------------------------------|
D---------------------------------------------------------------------------|
A-6-(x16)-444444444444444-22222-7777777777777-66666666666666-12121212121212-|
E---------------------------------------------------------------------------|
                                                      (12's not 1's and 2's)
Solo PART 2

G--------------------------------------|
D--------------------------------------|
A-777777777777777-----999999999999999--|
E--------------------------------------|

G------------------------------------------------------------|
D------------------------------------------------------------|
A-11-11-11-11-11-11-11-11-11-----14-14-14-14-14-14-14-14-14--|
E------------------------------------------------------------|

End On

G---
D---
A-7-
E---


Defy You

Intro/Chorus

G----------------------------------------------------------|
D----------------------------------------------------------|
A-5h7-7-7----------------------5h7-7-7---------------------|
E----------3*----3h5-5-5---0*-----------3*---5-3-5--00-30--|

then (this part only at the end of intro)

G--------|
D--------|
A--------|
E-5-3-0--|

Verse

G-------------------------------------------------------------|
D-------------------------------------------------------------|
A-5h7-7-7----------------------5h7-7-7------------------------|
E---------33----3h5-5-5--00------------33----3h5-5-5-00----5--|

G---------------------------------------------------------------|
D---------------------------------------------------------------|
A-5h7-7-7---------------------5h7-7-7---------------------------|
E---------33----3h5-5-5--00------------33----33355553355553355--|

Bridge pt 1

G-------------------------|
D-------------------------|
A--7*--75*--5-------------|
E-------------3*--35*-----|

Bridge pt 2

G----------------------------------|
D----------------------------------|
A-7*-7---75*--5---5----------------|
E-------------------3*--3---35*--5-|

End

G---------------------------------|
D---------------------------------|
A--5h7-7-7------------------------|
E-----------3*----5-3-5---00-30---|

G-------------------------|
D-------------------------|
A--5h7-7-7----------------|
E-----------3*----5-3-0---|

Order:
Intro/Chorus  (x2)
Verse (x1)
Chorus (x2)
Verse (x1)
Bridge pt 1 (x1)
Chorus (x4)
Bridge pt 1 (x3)
Bridge pt 2 (x3)
Chorus (x2)
End (x1)


Hit That - order is easy, work it out it seconds

Intro

G----------|
D----------|
A----------|
E-3-5-000--|

Verse

G-----------------------------|
D-----------------------------|  x7
A--7-7-7-7-7-7----------------|
E-0-0-0-0-0-0------7-6-5-3-0--|

Pre Chorus

G-------------------|
D-------------------|
A--7-7-7-7-7-7-7-7--|
E-0-0-0-0-0-0-0-0---|

Chorus

G--------------------------------------------------------5-5-5-5-|
D--5-5-5-5--7-7-7-7--5-5-5-5--7-7-7-7----------------------------|
A--------------------------------------7-7-7-7-7-7-7-7--3-3-3-3--|
E-3-3-3-3--5-5-5-5--3-3-3-3--5-5-5-5--0-0-0-0-0-0-0-0------------|

G------------------------------4-4-4-4------------|
D--7-7-7-7----------------------------------------|
A--------------------7-7-7-7--2-2-2-2-------------|
E-5-5-5-5-----------0-0-0-0-------------3-5-000---|

Bridge

(No Bass until after "Take a chance everything a game".

G-----------------------------|
D-----------------------------|
A--7-7-7-7-7-7----------------|
E-0-0-0-0-0-0------7-6-5-3-0--|

Chorus

G--------------------------------------------------------5-5-5-5-|
D--5-5-5-5--7-7-7-7--5-5-5-5--7-7-7-7----------------------------|
A--------------------------------------7-7-7-7-7-7-7-7--3-3-3-3--|
E-3-3-3-3--5-5-5-5--3-3-3-3--5-5-5-5--0-0-0-0-0-0-0-0------------|

G------------------------------4-4-4-4-----------|
D--7-7-7-7---------------------------------------|
A--------------------7-7-7-7--2-2-2-2------------|
E-5-5-5-5-----------0-0-0-0-------------3-5-000--|

Can't Get My) Head around You

Intro 0:16

G-----
D-----
A-----
E-10\-

Verse

G-------------------------|
D-------------------------|
A-----------2-555---------|
E-000-2-333-------3-555-3-|

Chorus

G------------------------------------------|
D------------------------------------------|
A-3333333333333333----7\----7\----7\----7\-|
E------------------00----00----00----00----|

G-----------------------------------|
D-----------------------------------|
A-3333333333333333-5555555-22222222-|
E-----------------------------------|

-verse
-chorus
-verse
-verse during little solo

G------------------|
D------------------|
A-7-7-7-7-7-7-7-7\-|
E------------------|

-chorus
-BREAK
-verse

Ending

G---------------------|
D---------------------|
A---------------------|
E-00000000-0000000-0~-|

Please Rate and Thank You. Enjoy.
comments
print report bad tab
12 comments total. Showing first comments.
0 reply
neocon58 wrote on September 6 2005, 12:00 am

meg

0 reply
casual9 wrote on September 6 2005, 12:00 am

what about that little song at the very end?

0 reply
casual9 wrote on September 6 2005, 12:00 am

well done

I want to post or [tab]
guest
You may want to rate the tab now too:
select rating
Please do not post tabs as comments. Select "correction" instead!