Oops, an error
Loading. Please wait.
We have an official Have You Ever tab made by UG professional guitarists. Check out the tab »
×
15,448 views 9 this week
4 commentsread comments
1 2 3 4 5
x 21
add to favorites
×
Save as Personal and add changes to this tab that will be seen only by you. Learn more ›
×
You can save this tab as Personal to edit and correct it or add notes. All changes will be seen only by you. Learn more »
launch autoscroll
font size
0
reset
guitar tuner
backing track
0:00
0:00
edit
Autoscroll
slow
fast
+/-
esc
set tempo
stop
Author
THIS SONG SOUNDS 100% RIGHT IF YOU THINK ITS SOUNDS WRONG SOMTHING IS WROUNG WITH YOU.

G:-------
D:-------
A:7------ X6
A:-000000
     (FALLIN IAM FALLIN....)
G:------------------------------------
D:------------------------------------
A:77777777----5555---77777777----5555-
E:--------3333---------------3333-----
     (HAVE YOU EVER...)
G:------------------------------------
D:------------------------------------
A:77777777--------55555555------------ 2X
E:--------33333333--------555-8-7-7777
           (CHOURS)
G:------------------------------------
D:------------------------------------
A:7777-3333----5555--7777-3333----5555 (THEN YOU  
E:---------3333---------------3333---- START OVER)
          
  "THIS IS THE END PART"
G:---------------
D:---------------
A:7(LET-IT-RING)-
E:0--------------

     (BASS SOLO)

G:-----------------------------------
D:-----------------------------------
A:777----5555-7777-3333-5555--------- 8X
E:---3333-------------------0-2-3-2-0

   (I LIKE TO THANK THE WORLD....)
G:------------------
D:------------------
A:3333-5555--------- 2X
E:---------0-2-3-2-0

 THIS SONG IS FUN TO PLAY SO GOOD LUCK!
 EMAIL ME FOR ANY QUESTIONS,OR CORECTIONS
 AT USAF122SE@CS.COM

            
            
Suggest correction
Creating personal tab
Creating personal tab
You can edit any tab online and save it as your Personal.

You can edit, replace or remove any tab part or add personal notes – all changes will be seen only by you.

Personal tabs can be accessed anytime from any device, even offline.
Learn more »
comments
print report bad tab
4 comments total. Showing first comments.
+1 reply
Alien_from_a_cd 420 Jan 15, 2005 07:00 PM

Hey dude, that's awsome, but what's with the caps lock?

+1 reply
Luke29 10 Oct 03, 2007 04:03 PM

"THIS SONG SOUNDS 100% RIGHT IF YOU THINK ITS SOUNDS WRONG SOMTHING IS WROUNG WITH YOU." Not true, the ending is not

G:------------------
D:------------------
A:3333-5555--------- 2X
E:---------0-2-3-2-0

is

G:------------------------------------
D:------------------------------------
A:3333-5555---------3333-5555---------
E:---------0-2-3-2-0------------------

Just joking, grat tab!

0 reply
minifridge 60 Aug 13, 2008 01:31 PM

there is something wrong! "i like to thank the world" is actually "i like to think the world"
but kick ass song/tab

guest
You may want to rate the tab now too:
select rating
Wanna post a correction for this tab? Suggest correction