Oops, an error
Loading. Please wait.

Have You Ever Tab

version 4
version 4

Interactive

1,392 views 1 this week
3 commentsread comments
1 2 3 4 5
x 5
add to favorites
launch autoscroll
font size
0
reset
how to read this tab
guitar tuner
backing track
0:00
0:00
×
Best way to learn
"Have You Ever"
Autoscroll
slow
fast
+/-
esc
set tempo
stop
----------------------------------------------------------------------------
                      Have You Ever - The Offspring
----------------------------------------------------------------------------
Tabbed by: extendafist
Email: ruddick.brandon@yahoo.com

Tuning: Standard

Intro (gradually decrease tempo then inrease rapidly):

e|--------------|
B|--------------|
G|-9------------|
D|-9------------|
A|-7------------|
E|---0-0-0-0-0-0|

Intro 2:

e|-------------------------------------|
B|-------------------------------------|
G|-9--9--9--9--9-9-9-9-9999999999999999|
D|-9--9--9--9--9-9-9-9-9999999999999999|
A|-7--7--7--7--7-7-7-7-7777777777777777|
E|-------------------------------------|

First Chorus

e|------------------------------------------------|
B|------------------------------------------------|
G|-99--9--9--9--9--9--9--9--------------7--7--7--7|
D|-99--9--9--9--9--9--9--9--5--5--5--5--7--7--7--7|
A|-77--7--7--7--7--7--7--7--5--5--5--5--5--5--5--5|
E|--------------------------3--3--3--3------------|

Verse:

e|-------------------------------------------------------|
B|-------------------------------------------------------|
G|------------------------------------------2--2--2--5--4|
D|-5-4-5--5-4-5--5-4-5--5-4-5--4-2-4--4-2-4-2--2--2--5--4|
A|------------------------------------------0--0--0--3--2|
E|-------------------------------------------------------|
   px??????????

Chorus

e|-------------------------------------------------------------------------|
B|-------------------------------------------------------------------------|
G|-99--9--9--9--55--5--5--5---------------77--7--7--7----------------------|
D|-99--9--9--9--55--5--5--5--55--5--5--5--77--7--7--7----------------------|
A|-77--7--7--7--33--3--3--3--55--5--5--5--55--5--5--5----------------------|
E|---------------------------33--3--3--3-----------------------------------|

Pre-Outro (Fade in as last chorus fades out)

e|---------|
B|---------|  Constantly play this as 8th notes
G|---------|  until the E chord comes in, as follows.
D|-22222222|
A|---------|
E|---------|


e|---| Hold this chord for awhile (check
B|---| song for exact timing). The strange
G|-9-| noises in the section after this chord
D|-9-| are made by scratching up and down the
A|-7-| strings.
E|-0-|

Outro

e|-------------------------------------------------------------------------|
B|-------------------------------------------------------------------------|
G|-9--5-----7--------------------------------------------------------------|
D|-9--5--5--7----------------245-4-2---------------------------------------|
A|-7--3--5--5----------------245-4-2---------------------------------------|
E|-------3-------------------023-2-0---------------------------------------|
  These are the
  chords for the
  Outro. Listen
  to the song for
  the exact rythm.
  It's not very
  hard to get right.

| /  slide up
| \  slide down
| h  hammer-on
| p  pull-off
| ~  vibrato
| +  harmonic
| x  Mute note
| px Palm mute to the end of ?
============================================================================
You can only use this tab for your own private uses. The contents of this tab are the 
own work and may not be recreated or distributed.

I think this is pretty much spot on, a couple of mistakes here and there (maybe). It 
be easy to play.

Enjoy the tab!
Suggest correction
comments
print report bad tab
3 comments total.
0 reply
Rank 1 10 Aug 13, 2004 08:00 PM

Sorry I`ve done a mistake with the Intro... :-(

but the correct Intro is always with: and not with:
----- -----
----- -----
----- ----- --9-- --2--
--9-- --2--
--7-- --0--

sorry for that mistake...
Rank 1

0 reply
Rank 1 10 Aug 13, 2004 08:00 PM

Sorry I`ve done a mistake with the Intro... :-(

but the correct Intro
is always with: and not with:
----- -----
----- -----
----- -----
--9-- --2--
--9-- --2--
--7-- --0--

sorry for that mistake...
Rank 1

0 reply
InspiredByDirnt 10 Aug 21, 2004 08:00 PM

the verse seems a little off

guest
You may want to rate the tab now too:
select rating
Wanna post a correction for this tab? Suggest correction