Oops, an error
Loading. Please wait.
We have an official Have You Ever tab made by UG professional guitarists. Check out the tab »
×
10,723 views 12 this week
no commentswrite comment
1 2 3 4 5
x 11
add to favorites
×
Save as Personal and add changes to this tab that will be seen only by you. Learn more ›
×
You can save this tab as Personal to edit and correct it or add notes. All changes will be seen only by you. Learn more »
save as personal
new!
launch autoscroll
font size
0
reset
how to read this tab
guitar tuner
backing track
0:00
0:00
Autoscroll
slow
fast
+/-
esc
set tempo
stop
This is a tab of the entire album,
it took me a long time, so, please rate it!

Tabbed by Neno
----------------------------------------------------------------------------|Track 1: Welcome
----------------------------------------------------------------------------|

"Welcome to Americana. Please make your selection followed by the pound sign now."

****************************************************************************
----------------------------------------------------------------------------|Track 2: Have You Ever
----------------------------------------------------------------------------|

Intro

e------------------------------------------------|
B------------------------------------------------|
G---9----------------------9---------------------|
D---9----------------------9---------------------| x3
A---7----------------------7---------------------|
E-------0--0--0--0--0--0-------0--0--0--0--0--0--|

e--------------------------------------------------|
B--------------------------------------------------|
G---9--9--9--9--9--9--9--9--9--9--9--9--9--9--9--9-|
D---9--9--9--9--9--9--9--9--9--9--9--9--9--9--9--9-|
A---7--7--7--7--7--7--7--7--7--7--7--7--7--7--7--7-|
E--------------------------------------------------|

----------------------------------------------------------------------------
Chorus

e-||------------------------------------------------------------------|
B-||------------------------------------------------------------------|
G-||--9-9--9---9-9-9--9-9--9---9-9-9-------------------7-7--7---7-7-7-|
D-||--9-9--9---9-9-9--9-9--9---9-9-9--/5-5--5---5-5-5--7-7--7---7-7-7-|
A-||--7-7--7---7-7-7--7-7--7---7-7-7--/5-5--5---5-5-5--5-5--5---5-5-5-|
E-||----------------------------------/3-3--3---3-3-3-----------------|
    Fall      -     ing,    I'm fall         -       ing.

e-------------------------------------------------------------------|
B-------------------------------------------------------------------|
G---9--9---9----9--9--9---9--9---9----9--9--9-----------------------|
D---9--9---9----9--9--9---9--9---9----9--9--9--/5--5---5----5--5--5-|
A---7--7---7----7--7--7---7--7---7----7--7--7--/5--5---5----5--5--5-|
E----------------------------------------------/3--3---3----3--3--3-|
    Fall         -        ing         I'm fall         -

                             Verse:
e-----------------------||-||--------------------------------------|
B-----------------------||-||--------------------------------------|
G---7--7---7----7--7--7-||-||--------------------------------------|
D---7--7---7----7--7--7-||-||--------------------------------------|
A---5--5---5----5--5--5-||-||----10----9----10--------10---9----10-|
E-----------------------||-||-0--------------------0---------------|
    ing.

e---------------------------------------------------------------|
B---------------------------------------------------------------|
G---------------------------------------------11----9----11-----|
D------------------------------------------0---0----0-----0---0-|
A---10----9----10-------10----9----10---------------------------|
E---------------------------------------------------------------|


e--------------------------------------------------------------------||
B--------------------------------------------------------------------||
G-------11----9----11------------------------------------------------||
D---0----0----0-----0----7---7-----7----10-10--9--9---9--9----9--9--9||
A------------------------7---7-----7----10-10--9--9---9--9----9--9--9||
E------------------------5---5-----5-----8--8--7--7---7--7----7--7--7||

----------------------------------------------------------------------------
Pre-Chorus

e-||--------------------------------------------------------------|
B-||--------------------------------------------------------------|
G-||--9--9---9---9--9--9/5--5---5----5--5--5----------------------|
D-||--9--9---9---9--9--9/5--5---5----5--5--5---5--5---5---5--5--5-|
A-||--7--7---7---7--7--7/3--3---3----3--3--3---5--5---5---5--5--5-|
E-||-------------------------------------------3--3---3---3--3--3-|

e------------------------||
B------------------------||
G---7--7---7----7--7--7--||
D---7--7---7----7--7--7--||
A---5--5---5----5--5--5--||
E------------------------||

----------------------------------------------------------------------------
Pos-Chorus 1
e-------------------------------------------------------------|
B-------------------------------------------------------------|
G---7---7----7-----7---7---7----7---7---7---7---7---7---7---7-|
D---7---7----7-----7---7---7----7---7---7---7---7---7---7---7-|
A---5---5----5-----5---5---5----5---5---5---5---5---5---5---5-|
E-------------------------------------------------------------|

----------------------------------------------------------------------------
Pos-Chorus 2
e-----------------------------|
B-----------------------------|
G---7---7----7-----7---7---7--|
D---7---7----7-----7---7---7--|
A---5---5----5-----5---5---5--|
E-----------------------------|

e--------------------------------------------|
B--------------------------------------------|
G---9--9---9---9--9--9---9--9---9----9--9--9-|
D---x--x---x---x--x--x---x--x---x----x--x--x-|
A---7--7---7---7--7--7---7--7---7----7--7--7-|
E--------------------------------------------|


e--------------------------------------------|
B--------------------------------------------|
G---9--9---9---9--9--9---9--9---9----9--9--9-|
D---x--x---x---x--x--x---x--x---x----x--x--x-|
A---7--7---7---7--7--7---7--7---7----7--7--7-|
E--------------------------------------------|

----------------------------------------------------------------------------
Interlude
e---0-----------|
B---0-----------|
G---x-----------|
D---2-----------|Let ring... (bass and drums)
A---2-----------|
E---0-----------|

e------------------------------------------------|
B------------------------------------------------|
G---9----------------------9---------------------|
D---9----------------------9---------------------| x3
A---7----------------------7---------------------|
E-------0--0--0--0--0--0-------0--0--0--0--0--0--|

e---------------------------------------------------------|
B---------------------------------------------------------|
G---9--9--9--9--9--9--9--9--9--9--9--9--9--9--9--9--9\----|
D---9--9--9--9--9--9--9--9--9--9--9--9--9--9--9--9--9\----| (bass and drums)
A---7--7--7--7--7--7--7--7--7--7--7--7--7--7--7--7--7\----|
E---------------------------------------------------------|

----------------------------------------------------------------------------
Outro

e-||------------------------------------------------------|
B-||------------------------------------------------------|
G-||--9---9---9------------------7---7---7-----9---9---9--|
D-||--9---9---9-----5---5---5----7---7---7-----9---9---9--|
A-||--7---7---7-----5---5---5----5---5---5-----7---7---7--|
E-||----------------3---3---3-----------------------------|

e------------------------------------------------||
B------------------------------------------------||
G---5---5---5-----7---7----------------------/9--||
D---5---5---5-----7---7----------------------/9--|| x2
A---3---3---3-----5---5------------------2---/7--||
E------------------------0--2---3---2/0--0-------||


e---------------------------------------------------------------------|
B---------------------------------------------------------------------|
G------------------/9-----5---5---5-----7---7----------------------/9-|
D------------------/9-----5---5---5-----7---7----------------------/9-|
A--------------2---/7-----3---3---3-----5---5------------------2---/7-|
E---3----2/0---0--------------------------------0--2--3---2/0--0------|

e----------------------|
B----------------------|
G---/5---5---5---5---7-|
D---/5---5---5---5---7-|
A---/3---3---3---3---5-|
E----------------------|

Intro
Chorus
Verse x2
Pre-Chorus x2
Chorus
Pos-Chorus1
Verse x2
Pre-Chorus x2
Chorus
Pos-Chorus2 x2
Interlude
Outro x2-----------------
Suggest correction
comments
print report bad tab
guest
You may want to rate the tab now too:
select rating
Wanna post a correction for this tab? Suggest correction