Oops, an error
Loading. Please wait.

Hey Joe bass

version 2
version 2

Whole song

Interactive

489 views 1 this week
no commentswrite comment
1 2 3 4 5
3 more votes to show rating
add to favorites
×
Save as Personal and add changes to this tab that will be seen only by you. Learn more ›
×
You can save this tab as Personal to edit and correct it or add notes. All changes will be seen only by you. Learn more »
launch autoscroll
font size
0
reset
guitar tuner
edit
Autoscroll
slow
fast
+/-
esc
set tempo
stop
Author
++++++++++++++++++++++++++
| The Offspring- Hey Joe |
++++++++++++++++++++++++++




Tuning: EADG



Verse
"Hey Joe where you going with that gun in your hand..."
1.
G|----------------------------------------------------------------------------|
D|-----------------------------------------------------5~---------------------|
A|-33333333-------33-55555555-------55-7777777777---5-----7777777777---7~-7-5-|--x4
E|----------333333------------555555--------------7--7---------------7--------|

Chorus
"Hey Joe I heard that you shot your old lady down..."
2.
G|---------------------------------------------------|
D|---------------------------------5~----------------|
A|-3333------5555------7-7-7----5-----7-7-7---7~-7-5-|
E|------3333------5555-00000--7--7----00000-7--------|

"Well you know I guess that's true..."
3.
G|---------------------|
D|---------------------|
A|-3333------5555------|
E|------3333------5555-|

Outro
4.
G|-----------------------------------------------------------------------------------|
D|------5~------------------5~------------------5~------------------5~---------------|
A|-7777-----7777-7-5~--7777-----7777-7-5~--7777-----7777-7-5~--7777-----7777-7-5~----|
E|-----------------------------------------------------------------------------------|

Verse
"Hey Joe where you going with that gun in your hand..."
5.
G|----------------------------------------------------------------------------|
D|-----------------------------------------------------5~---------------------|
A|-33333333-------33-55555555-------55-7777777777---5-----7777777777---7~-7-5-|--x6
E|----------333333------------555555--------------7--7---------------7--------|

Outro
6.
G|-------------------------------------------------------------------------|
D|--------------------------------------------------5~---------------------|
A|-3---------2-3-4-5---------4-5-6-77777777777---5-----7777777777---7~-7-5-|
E|---0-1-2-3---------2-3-4-5-------------------7--7---------------7--------|

7.
G|-------------------------------------------------------------------|
D|-------------------------------------------------9~----------------|
A|-3---------2-3-4-5---------4-5-6-7~--77777-777---7~----------------|
E|---0-1-2-3---------2-3-4-5-----------------------------------------|


Please rate thanks!!!


Lyrics:

Hey Joe, 
Where you goin' with that gun in your hand? 
Hey Joe, 
Where you goin' with that gun in your hand? 
Goin' down to shoot my old lady 
You know I caught her messing around with another man, 
Goin' down to shoot my old lady 
You know I caught her messing around on me, 

Hey Joe, 
I heard that you shot your old lady down, 
Yes I did, I shot her her 
You know, I caught that girl messing around town 

Yes I did, I shot her her 
You know, I caught that girl messing around town 
I took out my gun, 
Then I shot her! 

I shot her! 

Hey Joe, 
Where you gonna run to now? 
Hey Joe, 
Where you gonna run to now? 
Where you gonna go? 

Ain't no hangman gonna, 
Get a rope around me, 
Ain't no hangman gonna, 
Get a rope around me. 

Goin' way down south, 
Way down to Mexico way 
Goin' way down south, 
Way down where I can be free 



+++++++++++++++++++++++++++++++++
| Raileff                       |
| Underground__Dora@Hotmail.Com |
+++++++++++++++++++++++++++++++++
Suggest correction
Creating personal tab
Creating personal tab
You can edit any tab online and save it as your Personal.

You can edit, replace or remove any tab part or add personal notes – all changes will be seen only by you.

Personal tabs can be accessed anytime from any device, even offline.
Learn more »
Give kudos to tab author, rate the tab!
1 2 3 4 5
comments
print report bad tab
guest
You may want to rate the tab now too:
select rating
Wanna post a correction for this tab? Suggest correction