Oops, an error
Loading. Please wait.

Hopeless bass

version 1
version 1

Whole song

Interactive

138 views 1 this week
no commentswrite comment
1 2 3 4 5
3 more votes to show rating
add to favorites
×
Save as Personal and add changes to this tab that will be seen only by you. Learn more ›
×
You can save this tab as Personal to edit and correct it or add notes. All changes will be seen only by you. Learn more »
launch autoscroll
font size
0
reset
guitar tuner
edit
Autoscroll
slow
fast
+/-
esc
set tempo
stop
Author
------------------------------------------------------------------
			     Hopeless - The Offspring
------------------------------------------------------------------

Band: Manic Subsidal (Pre-Offspring days)
Year: 1985
Album: Unreleased recording

Tuning: Standard

"Hopeless" was the only track recorded by Manic Subsidal, who were the
Offspring before they changed their name. It was kept off the first
album. Search for it on youtube.

Verse 1 (2x): "Everything must regulate..."
G|--------------------------------------------------------------------|
D|--------------------------------------------------------------------|
A|--33-3h44-4-33-3-/-6-5-3---11-1h44-4-11-1---------------------------|
E|------------------------------------------4-1-----------------------|

Pre-Chorus: "Well, life is structured..."
G|--------------------------------------------------------------------|
D|--------------------------------------------------------------------|
A|--333-111-333-111-333--6-6-5-5--------------------------------------|
E|--------------------------------------------------------------------|

Chorus: "Hopeless! Just let me out of this fucking world..."
G|--------------------------------------------------------------------|
D|--------------------------------------------------------------------|
A|--33-3h66-6-----------33-3/66-6----------33-3h66-6------------------|
E|------------4444-3-3------------4444-3-3-----------4444-3-3-4444-33-|

G|---------------|
D|---------------|
A|---------------|
E|-1-1-1-1-------|

Interlude: play 4x
G|------------------------------------------|
D|------------------------------------------|
A|--33-3h44-4-1-1-1-1-----------------------|
E|------------------------------------------|

During Guitar Solo:
G|----------------------------------------------------------------------|
D|----------------------------------------------------------------------|
A|--33-3h6h3-3------33-3h6h3-3--------3-3h6h3-3-------------------------|
E|------------4--3------------444-33-----------444-333-444-333-1-1-1-1/-|

Verse 2 (2x): "You run your life, hey!, you're on a ride..."
G|--------------------------------------------------------------------|
D|--------------------------------------------------------------------|
A|--33-3h44-4-33-3-/-6-5-3---11-1h44-4-11-1---------------------------|
E|------------------------------------------4-1-----------------------|

Pre-Chorus: "Well, life is structured..."
G|--------------------------------------------------------------------|
D|--------------------------------------------------------------------|
A|--333-111-333-111-333--6-6-5-5--------------------------------------|
E|--------------------------------------------------------------------|

Chorus: "Hopeless! Just let me out of this fucking world..."
G|--------------------------------------------------------------------|
D|--------------------------------------------------------------------|
A|--33-3h66-6-----------33-3/66-6----------33-3h66-6------------------|
E|------------4444-3-3------------4444-3-3-----------4444-3-3-4444-33-|

G|--------|
D|--------|
A|--3-----|
E|--------|


| /  slide up
| \  slide down
| h  hammer-on
| p  pull-off
| ~  vibrato
| +  harmonic
| x  Mute note
==========================================================================

            
            
Suggest correction
Creating personal tab
Creating personal tab
You can edit any tab online and save it as your Personal.

You can edit, replace or remove any tab part or add personal notes – all changes will be seen only by you.

Personal tabs can be accessed anytime from any device, even offline.
Learn more »
Give kudos to tab author, rate the tab!
1 2 3 4 5
comments
print report bad tab
guest
You may want to rate the tab now too:
select rating
Wanna post a correction for this tab? Suggest correction