Oops, an error
Loading. Please wait.

Huck It bass

version 2
version 2

Whole song

Interactive

142 views 1 this week
no commentswrite comment
1 2 3 4 5
2 more votes to show rating
add to favorites
×
Save as Personal and add changes to this tab that will be seen only by you. Learn more ›
×
You can save this tab as Personal to edit and correct it or add notes. All changes will be seen only by you. Learn more »
launch autoscroll
font size
0
reset
guitar tuner
backing track
0:00
0:00
edit
Autoscroll
slow
fast
+/-
esc
set tempo
stop
Author
+++++++++++++++++++++++++++
| The Offspring- Huck It! |
+++++++++++++++++++++++++++

Tuning: EADG

Intro
1.
G|------------------------------------------|
D|------------------------------------------|
A|-777-5777-5777-5777-5777-5777-5777-5777-5-|--x2
E|------------------------------------------|

2.
G|--------------------------------------|
D|----------------------------5555-7777-|
A|-77777777-55555555--------------------|--x2
E|-------------------55555555-----------|

Verse
"Hitting walls for a feet..."
3.
G|--------------------------------------------------------|
D|------545--545--------------------545--54---------------|
A|-7~------7----5~-------------7~------7---5~---5555-5555-|
E|-------------------3333-5555----------------------------|

Chorus
"Huck it! You dont have the ties..."
4.
G|-------------------------------------------------------------|
D|------55-77---------55-------55-77---------55---------55-----|
A|-3333-------57777-77---53333-------57777-77---57777-77---35~-|
E|-------------------------------------------------------------|

Verse
"Drop a bomb..."
5.
G|---------------------------------------------------------|
D|------545--545--------------------545--545---------------|
A|-7~------7----5~-------------7~------7----5~-------------|
E|-------------------3333-5555-------------------3333-5555-|

"Broken bombs and baking skin..."
6.
G|---------------------------------------------------------|
D|---------------------------------------------------------|
A|--------------5~--------------------------5~---5555-5555-|
E|-0~---3230-323-----3333-5555-0~---3230-323---------------|

Chorus
"Huck it! Now you feel alive..."
7.
G|-------------------------------------------------------------|
D|------55-77---------55-------55-77---------55---------55-----|
A|-3333-------57777-77---53333-------57777-77---57777-77---35~-|--x2
E|-------------------------------------------------------------|

Outro
8.
G|------------------------------------------|
D|------------------------------------------|
A|-777-5777-5777-5777-5777-5777-5777-5777-5-|--x2
E|------------------------------------------|

Break
9.
G|-------------------------------------------------------------------|
D|-------------------------------------------------------------------|
A|--------------3~-------------------------------3~-3333333-33333333-|
E|-00x--3230--32------33333333-555--00~--3230--32--------------------|

Chorus
"Huck it! Now you feel alive..."
10.
G|-------------------------------------------------------------|
D|------55-77---------55-------55-77---------55---------55-----|
A|-3333-------57777-77---53333-------57777-77---57777-77---35~-|--x2
E|-------------------------------------------------------------|

Outro
11.
G|----|
D|----|
A|-7x-|
E|----|

Lyrics:

Hitting walls for a feet
With our friends and we hear this free
All the dogs, dropping bombs
He see

Huck it You don't have the ties
You won't have the eyes
Huck it Cause you realize
You don't need to justify
That cable show is not the lives we know

Drop a bomb in the publics eye
Fuck the Spartans they always lie
You are pointing to go fast and GO

Broken bombs and baking skin
Notify your next of kin
You'll know you'll come alive some day

Huck it Now you feel alive,
stinks like shit all the time
Huck it Its like you gotta try
risky shit, by the time
You can not practice lay it on the line

Huck it Now you're down in luck
cause you dont give a fuck
Huck it And go by the time
You go out doin what you know 
no talking shit just leave it all and go home

+++++++++++++++++++++++++++++++++
| RaiLeff                       |
| Underground__Dora@Hotmail.Com |
+++++++++++++++++++++++++++++++++

            
            
Suggest correction
Creating personal tab
Creating personal tab
You can edit any tab online and save it as your Personal.

You can edit, replace or remove any tab part or add personal notes – all changes will be seen only by you.

Personal tabs can be accessed anytime from any device, even offline.
Learn more »
Give kudos to tab author, rate the tab!
1 2 3 4 5
comments
print report bad tab
guest
You may want to rate the tab now too:
select rating
Wanna post a correction for this tab? Suggest correction