Oops, an error
Loading. Please wait.

Hurting As One bass

version 1
version 1

Whole song

Interactive

645 views 1 this week
1 commentread comment
1 2 3 4 5
x 8
add to favorites
×
Save as Personal and add changes to this tab that will be seen only by you. Learn more ›
×
You can save this tab as Personal to edit and correct it or add notes. All changes will be seen only by you. Learn more »
launch autoscroll
font size
0
reset
guitar tuner
edit
Autoscroll
slow
fast
+/-
esc
set tempo
stop
Author
Difficulty
-------------------------------------------------------------------------------
                               Hurting As One - The Offspring
-------------------------------------------------------------------------------
Tabbed by: Brian Wells

Tuning: Standard

 Intro
G|---------------|   |---------------|
D|---------------|   |---------------|
A|8-8-8-8-8-8-8-8|X7 |---------------|
E|---------------|   |6-6-4-4-3-3-4-4|

 Verse
G|----------------------------------|
D|----------------------------------|
A|--------6-----------------6--6----|X2
E|1--4-4-----6-8-1--1-4-4--4-----6-8|

 Pre Chorus
G|-------------------------------------------------------------------------------|
D|-------------------------------------------------------------------------------|
A|4-4-4-4-4-4-4-4-6-6-6-6-6-6-6-6-8-8-8-8-8-8-8-8-----------------4-4-4-4-4-4-4-6|
E|------------------------------------------------4-4-4-4-4-4-4-4----------------|

 Chorus
G|----------------------------|
D|----------------------------|
A|8-8-8-8---------4-4-4--6-4-6|X4
E|--------4-4-4-4-------------|

 Post Chorus
G|---------------|   |---------------|
D|---------------|   |---------------|
A|8-8-8-8-8-8-8-8|X3 |---------------|
E|---------------|   |6-6-4-4-3-3-4-4|

 Verse
G|----------------------------------|
D|----------------------------------|
A|--------6-----------------6--6----|X2
E|1--4-4-----6-8-1--1-4-4--4-----6-8|

 Pre Chorus                                                      Hold   Hold
G|-------------------------------------------------------------------------------|
D|-------------------------------------------------------------------------------|
A|4-4-4-4-4-4-4-4-6-6-6-6-6-6-6-6-8-8-8-8-8-8-8-8-----------------4------6-------|
E|------------------------------------------------4-4-4-4-4-4-4-4----------------|
 
 Chorus
G|----------------------------|
D|----------------------------|
A|8-8-8-8---------4-4-4--6-4-6|X4
E|--------4-4-4-4-------------|
              
 Bridge
G|----------------|   |------------|
D|----------------|   |------------|
A|-8-8-8-8-8-8-8-8|X7 |8-8-8-8-----|
E|----------------|   |--------6--8|

G|----------------|   |------------|
D|----------------|   |------------|
A|-8-8-8-8-8-8-8-8|X7 |8-8-8-8-----|
E|----------------|   |--------6--8|

G|---------------------------------------------------------------|
D|---------------------------------------------------------------|
A|8-8-8-8-8-8-8-8-8-8-8-8-8-8-8-8-6-6-6-6-6-6-6-6-6-6-6-6-6-6-6-6|
E|---------------------------------------------------------------|

G|---------------------------------------|
D|---------------------------------------|
A|4-4-4-4-4-4-4-4-4-4-4-4-4-4-4-4-3/10/15|
E|---------------------------------------|

 Pre Chorus
G|----------------------------------------------------------------|
D|----------------------------------------------------------------|
A|4-4-4-4-4-4-4-4-6-6-6-6-6-6-6-6-8-8-8-8-8-8-8-8-----------------|
E|------------------------------------------------4-4-4-4-4-4-4-4-|

 Pre Chorus Continued                                            Hold   Hold
G|-------------------------------------------------------------------------------|
D|-------------------------------------------------------------------------------|
A|4-4-4-4-4-4-4-4-6-6-6-6-6-6-6-6-8-8-8-8-8-8-8-8-----------------4------6-------|
E|------------------------------------------------4-4-4-4-4-4-4-4----------------|

 Chorus/ Outro
G|----------------------------|   G|-----------|
D|----------------------------|   D|-----------|
A|8-8-8-8---------4-4-4--6-4-6|X8 A|8-8--8-8--8|
E|--------4-4-4-4-------------|   E|-----------|

| /  slide up
| \  slide down
| h  hammer-on
| p  pull-off
| ~  vibrato
| +  harmonic
| x  Mute note
===============================================================================
Suggest correction
Creating personal tab
Creating personal tab
You can edit any tab online and save it as your Personal.

You can edit, replace or remove any tab part or add personal notes – all changes will be seen only by you.

Personal tabs can be accessed anytime from any device, even offline.
Learn more »
comments
print report bad tab
1 comment total.
0 reply
offspring2011 10 Nov 07, 2012 07:37 AM

Awesome tab man keep it up!!

guest
You may want to rate the tab now too:
select rating
Wanna post a correction for this tab? Suggest correction