Oops, an error
Loading. Please wait.

Hypodermic bass

version 1
version 1

Whole song

Interactive

640 views 1 this week
no commentswrite comment
1 2 3 4 5
1 last vote to show rating
add to favorites
×
Save as Personal and add changes to this tab that will be seen only by you. Learn more ›
×
You can save this tab as Personal to edit and correct it or add notes. All changes will be seen only by you. Learn more »
launch autoscroll
font size
0
reset
guitar tuner
edit
Autoscroll
slow
fast
+/-
esc
set tempo
stop
Author
+++++++++++++++++++++++++++++
| The Offspring- Hypodermic |
+++++++++++++++++++++++++++++

EADG

Intro. 
1.
G|---------------------------|
D|---------------------------|
A|-------------33333-----555-|   x4
E|-5555555-111--------333----|

Verse
"When you're feeling low.."
2.
G|---------------------------|
D|---------------------------|
A|-------------33333-----555-|   x4
E|-5555555-111--------333----|

Pre-Chorus
"Can't you see like you saw before.."
3.
G|-----------------------|
D|--------333------------|
A|-----------3333333-555-|       x3
E|-5555555---------------|

Chorus
"When life's a waste.. run away yeah.."
4.
G|--------------------------------------------|
D|-333333333-555555555------------------------|
A|-------------------------33-555------33-----|  x2
E|---------------------5555--------5555---333-|

Outro
"Run away yeaaaah!.."
5.
G|--------------------|
D|---------------6/7~-|
A|------33-555--------|
E|-5555---------------|

Ok now repeat about the whole song
until 2:32
when you finish with this:

"Run away yeah.."
6.
G|--------------------------|
D|----------------22-33-555-|
A|------33-555--------------|
E|-5555--------55-----------|

Play that till song ends

Lyrics:

When you're feeling low
Hypodermic's where you go
When you're with yourself
You wish you could be someone else

Can't you see like you saw before
Can't you feel like you felt before
Can't you face anything anymore

When life's a waste
Run away yeah...
You're life's a waste
Run away yeah.. Run away yeah!

Once you get a ride
Doesn't matter where you lied
Once you shoot it in
Doesn't matter who you've been

You're reaching in
But you don't know where to begin
All your dance and song
Won't matter when you're gone

+++++++++++++++++++++++++++++++++
| RaiLeff                       |
| Underground__Dora@hotmail.com |
+++++++++++++++++++++++++++++++++

            
            
Suggest correction
Creating personal tab
Creating personal tab
You can edit any tab online and save it as your Personal.

You can edit, replace or remove any tab part or add personal notes – all changes will be seen only by you.

Personal tabs can be accessed anytime from any device, even offline.
Learn more »
Give kudos to tab author, rate the tab!
1 2 3 4 5
comments
print report bad tab
guest
You may want to rate the tab now too:
select rating
Wanna post a correction for this tab? Suggest correction