Oops, an error
Loading. Please wait.

I Choose bass

version 1
version 1

Whole song

Interactive

5,078 views 3 this week
3 commentsread comments
1 2 3 4 5
x 3
add to favorites
×
Save as Personal and add changes to this tab that will be seen only by you. Learn more ›
×
You can save this tab as Personal to edit and correct it or add notes. All changes will be seen only by you. Learn more »
launch autoscroll
font size
0
reset
guitar tuner
edit
Autoscroll
slow
fast
+/-
esc
set tempo
stop
SONG:  I CHOOSE         
BAND:  THE OFFSPRING
ALBUM: IXNAY ON THE HOMBRE 

TABS BY: Andy Oschwald and Jamie Cantore


  INTRO 

  first, guitar on its own, then play the first part:
G:---------------------------------------------------------------
D:---------------------------------------------------------------
A:-5--------------2-3-4------------------------------------------
E:------1-0-1-2-3------------------------------------------------

  then play the second part and repeat it once:
G:---------------------------------------------------------------
D:---------------------------------------------------------------
A:-5--3--5---5-3-----------2-3-4---------------------------------
E:---------5-----1-0-1-2-3---------------------------------------


  VERSE (play 4 times)

G:---------------------------------------------------------------
D:---------------3---3-4-5---------------------------------------
A:-5--3--5---5-3---3-------2-3-4-5--3--5---5-3-----------2-3-4---
E:---------5-----------------------------5-----1-0-1-2-3---------

   
  CHORUS 

  play this part twice
G:---------------------------------------------------------------
D:-----------------2-3-4-5---------------------------------------
A:-5--5--0-5-0-2-3---------2-3-4-5-------------------------------
E:---------------------------------------------------------------


  then play:            
G:---------------------------------------------------------------
D:---------------------3-2-----5---------------------------------
A:-5--5--0-5-0-2-3-----------------1--1---1-1--0-----------------
E:-----------------1-1-----3-3---5------1------------------------

- repeat second part of the INTRO twice
- repeat VERSE 4 times
- repeat CHORUS
- Guitarsolo: repeat VERSE twice



  BRIDGE

G:---------------------------------------------------------------
D:---------------------------------------------------------------
A:----------3--3-----5--5-5-5-5--5--5-5-5-5-----------3--3-------
E:-5--5-5-5------3-3-------------------------5--5-5-5------3-3-6-

G:---------------------------------------------------------------
D:---------------------------------------------------------------
A:---------------------------------------------------------------
E:-6-6-6-6--6--6-6-6-6--5--5-5-5-5--5--5-5-5-5-------------------


- repeat the whole INTRO but play the first part like this:
G:---------------------------------------------------------------
D:---------------------------------------------------------------
A:-5-5-5-------------2-3-4---------------------------------------
E:---------1-0-1-2-3---------------------------------------------

- repeat VERSE 4 times

then play the first part of the CHORUS.
Also the second part stays basically the same but finish it 
like this:              
G:----------------------------------------------------
D:---------------------3-2-----5----------------------
A:-5--5--0-5-0-2-3-----------------1--1---1-1--0--0-0-
E:-----------------1-1-----3-3---5------1-------------

G:----------------------------------------------------
D:----------------------------------------------------
A:-1--1---1-1-0--0-0--1--1---1-1--0-------------------
E:------1------------------1--------------------------


So, that's it!
It's hard to get the rythem, so you have to listen to the CD a lot.
If you've got problems playing the song, please contact me:

madman@goldnet.ch
                        Andy

            
            
Suggest correction
Creating personal tab
Creating personal tab
You can edit any tab online and save it as your Personal.

You can edit, replace or remove any tab part or add personal notes – all changes will be seen only by you.

Personal tabs can be accessed anytime from any device, even offline.
Learn more »
Give kudos to tab author, rate the tab!
1 2 3 4 5
comments
print report bad tab
3 comments total.
0 reply
Alien_from_a_cd 420 May 20, 2005 08:00 PM

hey man, nice tab...really nice

0 reply
ty36 10 Nov 24, 2008 05:06 AM

iv tried this tab again and again and it doesnt seem to fit
it looks like you've got way too many notes in the verse

0 reply
jervin22000 10 Jun 24, 2012 12:46 PM

Intro and verse lick - not quite right but closer.Some light, fast grace notes in there, kind of funky:):

|---------------------|:-----------------------------------------:|--------|
D|0-0-0----------------|:----------3-3-5-53-----------------------:|--------|
A|-------------------03|:5-3-530-53--------0345-3-530-53--------03:|--------|
E|-----------1012333---|:-------------------------------10123-33--:|--------|

guest
Wanna post a correction for this tab? Suggest correction