Oops, an error
Loading. Please wait.
We have an official Itll Be A Long Time tab made by UG professional guitarists. Check out the tab »
×
649 views 1 this week
no commentswrite comment
1 2 3 4 5
2 more votes to show rating
add to favorites
×
Save as Personal and add changes to this tab that will be seen only by you. Learn more ›
×
You can save this tab as Personal to edit and correct it or add notes. All changes will be seen only by you. Learn more »
launch autoscroll
font size
0
reset
guitar tuner
backing track
0:00
0:00
edit
Autoscroll
slow
fast
+/-
esc
set tempo
stop
Author
Difficulty
The Offspring - It'll be a long time from "Smash"

Bass TAB,Standard tuning

S = Semi-Quarter note
E = Eighth note
Q = Quater note
H = Half note
S = Semi-Quarter note


     E  E  H        E  E     E  E  H        E  E     Q    Q    Q    Q     
G||-----------------------|-----------------------|----------------------|
D||-----------------------|-----------------------|------------5----5----|
A||--5--5--------------3--|--5--5--------------5--|--3----3--------------|
E||-----------------------|-----------------------|----------------------|


  E  E  H        E  E     E  E  H        E  E     E  E  H        E  E   
-----------------------|-----------------------|-----------------------|
-----------------------|-----------------------|-----------------------|
--5--5--------------3--|--5--5--------------3--|--5--5--------------5--|
-----------------------|-----------------------|-----------------------|


  Q    Q    Q    Q       E  E  H        E  E     E  E  S S S S E  S E  S S S  
----------------------|-----------------------|----------------------------|
------------5----5----|-----------------------|---------------------------|
--3----3--------------|--5--5--------------3--|--5--5--5-5-5-5-5--5-5--5-33|
----------------------|-----------------------|----------------------------|


  E  E  S S S S E  S E  S S S    Q    Q    Q    Q     
------------------------------|----------------------|
------------------------------|------------5----5----|
--5--5--5-5-5-5-5--5-5--5-5-5-|--3----3--------------|
------------------------------|----------------------|


  E  E  S S S S E  S E  S S S    E  E  S S S S E  S E  S S S  
------------------------------|------------------------------|
------------------------------|------------------------------|
--5--5--5-5-5-5-5--5-5--5-3-3-|--5--5--5-5-5-5-5--5-5--5-3-3-|
------------------------------|------------------------------|


  E  E  S S S S E  S E  S S S    Q    Q    Q    Q       Q    Q    Q    Q     
------------------------------|----------------------|---------------------|
------------------------------|----------------------|---------------------|
--5--5--5-5-5-5-5--5-5--5-5-5-|--3----3----3----3----|--0----0----0----3---|
------------------------------|----------------------|---------------------|


  E  Q    E  Q    Q       E  Q    E  Q    Q       E  Q    E  Q    E  E   
-----------------------|-----------------------|------------------------|
-----------------------|-----------------------|------------------------|
--5--5----3--5----8----|--3--3----3--5----5----|--1--1----1--3----3--3--|
-----------------------|-----------------------|------------------------|


  Q    Q    Q    Q       E  Q    E  Q    Q       E  Q    E  Q    Q     
----------------------|-----------------------|-----------------------|
----------------------|-----------------------|-----------------------|
--3---------5----5----|--5--5----3--5----8----|--3--3----3--5----5----|
-------3--------------|-----------------------|-----------------------|


  E  Q    E  Q    E  E     Q    Q    Q    Q       E  Q    E  Q    E  E   
------------------------|----------------------|------------------------|
------------------------|----------------------|------------------------|
--1--1----1--3----3--3--|--3---------5----5----|--1--1----1--3----3--3--|
------------------------|-------3--------------|------------------------|


  Q    Q    Q    Q       H.           Q       H        Q    Q     
----------------------|--------------------|---------------------|
--3-------------------|--------------------|---------------------|
-------3----5----5----|--3------------3----|--0--------0----3----|
----------------------|--------------------|---------------------|


  E  E  H        E  E     E  E  H        E  E     Q    Q    Q    Q     
-----------------------|-----------------------|----------------------|
-----------------------|-----------------------|------------5----5----|
--5--5--------------3--|--5--5--------------5--|--3----3--------------|
-----------------------|-----------------------|----------------------|


  E  E  H        E  E     E  E  H        E  E     E  E  H        E  E   
-----------------------|-----------------------|-----------------------|
-----------------------|-----------------------|-----------------------|
--5--5--------------3--|--5--5--------------3--|--5--5--------------5--|
-----------------------|-----------------------|-----------------------|


  Q    Q    Q    Q       E  E  H        E  E     E  E  S S S S E  S E  S S S  
----------------------|-----------------------|----------------------------|
------------5----5----|-----------------------|----------------------------|
--3----3--------------|--5--5--------------3--|--5--5--5-5-5-5-5--5-5--5-33|
----------------------|-----------------------|----------------------------|


  E  E  S S S S E  S E  S S S    Q    Q    Q    Q     
------------------------------|----------------------|
------------------------------|------------5----5----|
--5--5--5-5-5-5-5--5-5--5-5-5-|--3----3--------------|
------------------------------|----------------------|


  E  E  S S S S E  S E  S S S    E  E  S S S S E  S E  S S S  
------------------------------|------------------------------|
------------------------------|------------------------------|
--5--5--5-5-5-5-5--5-5--5-3-3-|--5--5--5-5-5-5-5--5-5--5-3-3-|
------------------------------|------------------------------|


  E  E  S S S S E  S E  S S S    Q    Q    Q    Q       Q    Q    Q    Q     
------------------------------|----------------------|--------------------|
------------------------------|----------------------|--------------------|
--5--5--5-5-5-5-5--5-5--5-5-5-|--3----3----3----3----|--0----0----0----3--|
------------------------------|----------------------|--------------------|


  E  Q    E  Q    Q       E  Q    E  Q    Q       E  Q    E  Q    E  E   
-----------------------|-----------------------|------------------------|
------------------3----|-----------------------|------------------------|
--5--5----3--5---------|--3--3----3--5----5----|--1--1----1--3----3--3--|
-----------------------|-----------------------|------------------------|


  Q    Q    Q    Q       E  Q    E  Q    Q       E  Q    E  Q    Q     
----------------------|-----------------------|-----------------------|
----------------------|------------------3----|-----------------------|
--3---------5----5----|--5--5----3--5---------|--3--3----3--5----5----|
-------3--------------|-----------------------|-----------------------|


  E  Q    E  Q    E  E     Q    Q    Q    Q       E  Q    E  Q    E  E   
------------------------|----------------------|------------------------|
------------------------|----------------------|------------------------|
--1--1----1--3----3--3--|--3---------5----5----|--1--1----1--3----3--3--|
------------------------|-------3--------------|------------------------|


  Q    Q    Q    Q       E  Q    E  Q    E  E     Q    Q    Q    Q     
----------------------|------------------------|----------------------|
----------------------|------------------------|--3-------------------|
--3---------5----5----|--1--1----1--3----3--3--|-------3----5----5----|
-------3--------------|------------------------|----------------------|


  tempo change                                                 
  E            E  E  E  E  E  Q       E  E  E  E  E  E  E  E   
-----------------------------------|--------------------------|
-----------------------------------|-----5--5-----------------|
---------------5--5--3--3--3-------|-----------5--5--5--------|
-----------------------------------|--------------------------|


  E  E  E  E  E  E  E  E     E  E  E  E  E  E  E  E   
--------------------------|--------------------------|
--------------------------|-----5--5-----------------|
-----5--5--3--3--3--------|-----------5--5--5--------|
--------------------------|--------------------------|


  E  E  E  E  E  E  E  E     E  E  E  E  E  E  E  E     E  E  E  E  E  E  Q     
--------------------------|--------------------------|-------------------|
--------------------------|-----5--5-----------------|---------------------|
-----5--5--3--3--3--------|-----------5--5--5--------|-----5--5--3--3--3--|
--------------------------|--------------------------|---------------------|


  E  E  E  E  E  E  Q       E  E  E  E  E  E  Q       E  E  E  E  E  E  Q     
-------------------------|-------------------------|----------------------|
-----5--5----------------|-------------------------|-----5--5--------------|
-----------5--5--5-------|-----5--5--3--3--3-------|-----------5--5--5-----|
-------------------------|-------------------------|-----------------------|


  E  E  E  E  E  E  Q       E  E  E  E  Q    E   E     E  E  E  E  E  E  E  E   
-------------------------|--------------------------|----------------------|
-------------------------|-----5--5-----------------|--------------5--5--55|
-----5--5--3--3--3-------|-----------5--5----5S--3--|--3--3--3--3----------|
-------------------------|--------------------------|----------------------|


  E  E  E  E  E  E  E  E     E  E  E  E  E  E  E  E   
--------------------------|--------------------------|
--------------------------|--------------5--5--5--5--|
--5--5--5--5--5--5--5--5--|--3--3--3--3--------------|
--------------------------|--------------------------|


  E  E  E  E  E  E  E  E     E  E  E  E  E  E  E  E   
--------------------------|--------------------------|
--------------------------|--------------5--5--5--5--|
--5--5--5--5--5--5--5--5--|--3--3--3--3--------------|
--------------------------|--------------------------|


  E  E  E  E  E  E  E  E     E  E  E  E  E  E  E  E   
--------------------------|--------------------------|
--------------------------|--------------5--5--5--5--|
--5--5--5--5--5--5--5--5--|--3--3--3--3--------------|
--------------------------|--------------------------|


                             tempo change                    
  E  E  E  E  E  E  E  E     E            E  H        E  E   
--------------------------|---------------------------------|
--------------------------|---------------------------------|
--5--5--5--5--5--5--5--5--|--5------------5--------------3--|
--------------------------|---------------------------------|


  E  E  H        E  E     Q    Q    Q    Q       E  E  H        E  E   
-----------------------|----------------------|-----------------------|
-----------------------|------------5----5----|-----------------------|
--5--5--------------5--|--3----3--------------|--5--5--------------3--|
-----------------------|----------------------|-----------------------|


  E  E  H        E  E     E  E  H        E  E     Q    Q    Q    Q     
-----------------------|-----------------------|----------------------|
-----------------------|-----------------------|------------5----5----|
--5--5--------------3--|--5--5--------------5--|--3----3--------------|
-----------------------|-----------------------|----------------------|


  E  Q.     H           E  E  S S S S E  S E  S S S  
---------------------|------------------------------|
---------------------|------------------------------|
--5------------------|--5--5--5-5-5-5-5--5-5--5-3-3-|
---------------------|------------------------------|


  E  E  S S S S E  S E  S S S    Q    Q    Q    Q     
------------------------------|----------------------|
------------------------------|------------5----5----|
--5--5--5-5-5-5-5--5-5--5-5-5-|--3----3--------------|
------------------------------|----------------------|


  E  E  S S S S E  S E  S S S    E  E  S S S S E  S E  S S S  
------------------------------|------------------------------|
------------------------------|------------------------------|
--5--5--5-5-5-5-5--5-5--5-3-3-|--5--5--5-5-5-5-5--5-5--5-3-3-|
------------------------------|------------------------------|


  E  E  S S S S E  S E  S S S    Q    Q    Q    Q       Q    Q    Q    Q     
------------------------------|----------------------|--------------------|
------------------------------|----------------------|--------------------|
--5--5--5-5-5-5-5--5-5--5-5-5-|--3----3----3----3----|--0----0----0----3--|
------------------------------|----------------------|--------------------|


  E  Q    E  Q    Q       E  Q    E  Q    Q       E  Q    E  Q    E  E   
-----------------------|-----------------------|------------------------|
------------------3----|-----------------------|------------------------|
--5--5----3--5---------|--3--3----3--5----5----|--1--1----1--3----3--3--|
-----------------------|-----------------------|------------------------|


  Q    Q    Q    Q       E  Q    E  Q    Q       E  Q    E  Q    Q     
----------------------|-----------------------|-----------------------|
----------------------|------------------3----|-----------------------|
--3---------5----5----|--5--5----3--5---------|--3--3----3--5----5----|
-------3--------------|-----------------------|-----------------------|


  E  Q    E  Q    E  E     Q    Q    Q    Q       E  Q    E  Q    E  E   
------------------------|----------------------|------------------------|
------------------------|----------------------|------------------------|
--1--1----1--3----3--3--|--3---------5----5----|--1--1----1--3----3--3--|
------------------------|-------3--------------|------------------------|


  Q    Q    Q    Q       H.           Q       H.           Q     
----------------------|--------------------|--------------------|
--3-------------------|--------------------|--------------------|
-------3----5----5----|--3------------3----|--0------------3----|
----------------------|--------------------|--------------------|


  E  E  H        E  E     E  E  H.             
-----------------------|---------------------||
-----------------------|---------------------||
--5--5--------------3--|--5--5---------------||
-----------------------|---------------------||

            
            
Suggest correction
Creating personal tab
Creating personal tab
You can edit any tab online and save it as your Personal.

You can edit, replace or remove any tab part or add personal notes – all changes will be seen only by you.

Personal tabs can be accessed anytime from any device, even offline.
Learn more »
Give kudos to tab author, rate the tab!
1 2 3 4 5
comments
print report bad tab
guest
You may want to rate the tab now too:
select rating
Wanna post a correction for this tab? Suggest correction