Oops, an error
Loading. Please wait.

Kill The President bass

version 1
version 1

Whole song

Interactive

680 views 3 this week
1 commentread comment
1 2 3 4 5
3 more votes to show rating
add to favorites
×
Save as Personal and add changes to this tab that will be seen only by you. Learn more ›
×
You can save this tab as Personal to edit and correct it or add notes. All changes will be seen only by you. Learn more »
launch autoscroll
font size
0
reset
guitar tuner
backing track
0:00
0:00
edit
Autoscroll
slow
fast
+/-
esc
set tempo
stop
Author
Difficulty
This is a real kool punk rock song by the ofspring which i only listened to a couple of 
but made me want to tab it out as soon as possible. its got both a great bass and guitar 
layed down by noodles and greg.


Intro:


------------------------------------------|
--------2-------55--2-------2-------00--1-|   x8
------------------------------------------|
---000-----000---------000-----000--------|


------------------------------------------|
-----------555--444--222222222222---------|   x4
------------------------------------------|
---000000---------------------------------|


Verse:


--------------------------------------------------------|
--------------------------------------------------------|   x2
-----------------888888--555555--333333--555555--777777-|
---000000000000-----------------------------------------|


------------------------------------------|
-------8--5--7--3--5--3--2----------------|   x3
------------------------------------------|
---0--------------------------------------|


(repeat the whole verse over again)

Solo:


------------------------------------------|
------------------------------------------|   x4
------------------------------------------|
---000000000000--666666666666-------------|


------------------------------------------|
------------------------------------------|   x1
------------------------------------------|
---0--0--0--0--00--00--00--00-------------|


------------------------------------------|
-------8--5--7--3--5--3--2----------------|   x3
------------------------------------------|
---0--------------------------------------|


----------------------------------------------------------|
----------------------------------------------------------|   x10
-------------------------------333333333333---------------|
---000000000000--666666666666----------------555555555555-|

-------------------------------------------------------------|
------------------------8--5--7--3--5--3--x3--22222222--0--2-|
-------------------------------------------------------------|
---55555--55555--55555---------------------------------------|
Suggest correction
Creating personal tab
Creating personal tab
You can edit any tab online and save it as your Personal.

You can edit, replace or remove any tab part or add personal notes – all changes will be seen only by you.

Personal tabs can be accessed anytime from any device, even offline.
Learn more »
Give kudos to tab author, rate the tab!
1 2 3 4 5
comments
print report bad tab
1 comment total.
0 reply
thebassplayer92 10 Aug 15, 2008 09:44 AM

in the beginning , it should be 55-4 on the d string not 55-2

guest
You may want to rate the tab now too:
select rating
Wanna post a correction for this tab? Suggest correction