Oops, an error
Loading. Please wait.

Killboy Powerhead bass

version 2
version 2

Whole song

Interactive

76 views 3 this week
1 commentread comment
1 2 3 4 5
2 more votes to show rating
add to favorites
×
Save as Personal and add changes to this tab that will be seen only by you. Learn more ›
×
You can save this tab as Personal to edit and correct it or add notes. All changes will be seen only by you. Learn more »
launch autoscroll
font size
0
reset
guitar tuner
edit
Autoscroll
slow
fast
+/-
esc
set tempo
stop
Author
Difficulty
-------------------------------------------------------------------------------
                             Killboy Powerhead - The Offspring
-------------------------------------------------------------------------------
Tabbed by: 790FX
Alnum: Smash (1994)
Tuning: Standard

Such an easy and short song and Tab nr.1 is still in parts incomplete/wrong.


Verse 1 @ 0:00

G|-----------------------------|
D|---------------5-5-5-4---4-4-|
A|-7---7-7-5-7-7---------------| x6
E|-----------------------------|

Chorus @ 0:14

G|------------------------|-----------------------|------------------------|
D|------------------------|-----------------------|------------------------|
A|-7--7-7-7--7-7-7--7-7---|-3--3-3-3--3-3-3-3-3---|-5--5-5-5--5-5-5--5-5---|
E|------------------------|-----------------------|------------------------|

G|-9-----9-----5-----5-----7-----7-----|
D|-9-----9-----5-----5-----7-----7-----|
A|-7-----7-----3-----3-----5-----5-----| Chords are optionl.
E|-------------------------------------|


Pre Verse @ 0:24

G|--------------------------|
D|--------------------------|
A|--------------------5-----| x2
E|-7--5-5-7--5-7-7--7---7-5-|


Verse 2 @ 0:29                  
                                  __
G|-----------------------------|    \
D|---------------5-5-5-4---4-4-|     \
A|-7---7-7-5-7-7---------------| x3   \
E|-----------------------------|       \
                                        | x2
G|--------------------------|          /
D|--------------------------|         /
A|--------------------5-----|        /
E|-7--5-5-7--5-7-7--7---7-5-|     __/



Repeat 
       Chorus section @ 0:46 x1 


Interlude @ 0:57

G|--------------------------|
D|--------------------------|
A|--------------------6-----| x4
E|-8--6-6-8--6-6-8--8---8-6-|

G|-----------------------------|-----------------------------|-----------------------------|
D|-----------------------------|-----------------------------|-----------------------------|
A|-----------------------------|-----------------------------|-----------------------------|
E|-8--8-8-8-8-8-8--8--8-8--8-8-|-4--4-4-4-4-4-4--4--4-4--4-4-|-6--6-6-6-6-6-6--6--6-6--6-6-|

G|-----------------|-----------------|-----------------|
D|-----------------|-----------------|-----------------|
A|-----------------|-----------------|-----------------|
E|-8-----8---8-----|-4-----4---4-----|-6-----6---6-----|


Repeat 
       Verse 1 @ 1:16 x4


Chorus @ 1:15 x1

G|------------------------|-----------------------|------------------------|
D|------------------------|-----------------------|------------------------|
A|-7--7-7-7--7-7-7--7-7---|-3--3-3-3--3-3-3-3-3---|-5--5-5-5--5-5-5--5-5---|
E|------------------------|-----------------------|------------------------|

G|-9-----9-----5-----5-----7-----7-----|
D|-9-----9-----5-----5-----7-----7-----| Chords are optionl.
A|-7-----7-----3-----3-----5-----5-----| x3
E|-------------------------------------|


Outro @ 1:43

G|--------------------------|
D|--------------------------|
A|--------------------5-----| x4
E|-7--5-5-7--5-7-7--7---7-5-|

G|-----------------------6-----|-(6)-------------------------|
D|---------------5-5-5-4-------|-(4)-------------------------|
A|-7---7-7-5-7-7---------------|-----------------------------|
E|-----------------------------|-----------------------------|


| ()  hold note

===============================================================================
Suggest correction
Creating personal tab
Creating personal tab
You can edit any tab online and save it as your Personal.

You can edit, replace or remove any tab part or add personal notes – all changes will be seen only by you.

Personal tabs can be accessed anytime from any device, even offline.
Learn more »
Give kudos to tab author, rate the tab!
1 2 3 4 5
comments
print report bad tab
1 comment total.
0 reply
Basskittycat 43 Jun 19, 2017 04:07 PM

Sounds lovely, I prefer it much over the other version.

guest
You may want to rate the tab now too:
select rating
Wanna post a correction for this tab? Suggest correction