Oops, an error
Loading. Please wait.

Living In Chaos Bass Tab

version 2
version 2

Whole song

1,568 views 6 this week
no commentswrite comment
1 2 3 4 5
excellent!
x 2
add to favorites
launch autoscroll
font size
0
reset
guitar tuner
Tab Pro tools
  • play this tab
  • loop segment
  • change instrument
  • show fretboard
  • metronome
Autoscroll
slow
fast
+/-
esc
set tempo
stop
Contributor
++++++++++++++++++++++++++++++++++
| The Offspring- Living In Chaos |
++++++++++++++++++++++++++++++++++

Tuning: EADG

1.
G|-------------------------------------------|
D|-------------------------------------------|
A|-6h8-88-6h8-6h8-88-6h8-6h8-88-66-8888-9-88-|--x2
E|-------------------------------------------|

2.
G|----------------------------|
D|----------------------------|
A|-44-44--44-44--66-66--66-66-|
E|-------4------4------4------|

Verse
3.
G|-----------------------------|
D|-------------6~-5~-----------|
A|-8x--6h8-6h8-------6~-8x-33~-|--x5
E|-----------------------------|

"When you get up its real..."
4.
G|-------------------------|
D|-------------6x-5x-------|
A|-8x--6h8-6h8-------6x-8x-|
E|-------------------------|

Chorus
"Get on it, up on it..."
5.
G|-------------------------------------------|
D|-------------------------------------------|
A|-6h8-88-6h8-6h8-88-6h8-6h8-88-66-8888-9-88-|--x3
E|-------------------------------------------|

"Get on it, up on it, its on"
6.
G|-------------------------------|
D|-------------------------------|
A|-6h8-88-6h8-6h8-88-6h8-6h8-88x-|
E|-------------------------------|

Verse
"Somewhere along the line..."
7.
G|-----------------------------|
D|-------------6~-5~-----------|
A|-8x--6h8-6h8-------6~-8x-33~-|--x3
E|-----------------------------|

"Embrace the pain and see..."
8.
G|-------------------------|
D|-------------6x-5x-------|
A|-8x--6h8-6h8-------6x-8x-|
E|-------------------------|

Chorus
"Get on it, up on it..."
9.
G|-------------------------------------------|
D|-------------------------------------------|
A|-6h8-88-6h8-6h8-88-6h8-6h8-88-66-8888-9-88-|--x4
E|-------------------------------------------|

Outro
"Falling...."
10.
G|---------------------------------------------|
D|---------------------------------------------|
A|------------4~-------------------------------|--x2
E|-6~-66-6-6~-----------4~-44-4-4~-2~----2~-4~-|

Lyrics:

Somewhere the time was right,
Could have been gone in ten
This world is hard to fight, hitting
You once, hit it again
To know the way it feels, everyone
Gets knocked down
When you get up it's real, by taking
It back, turn it around

Get on it, up on it
Get on it - wouldn't wanna be you
Get on it, out on it
Get on it - no one's gonna free you
You know, when you're keeping it slow
No matter where you wanna go -
Wouldn't wanna be you
Get on it, up on it
It's on, we're living in chaos

Somewhere along the line, things
Get chipped away
This place keeps going down, gets
A little worse every day
I see hate and greed, this world's a
Messed up town
Embrace the pain and see, by taking
It back, you turn it around

+++++++++++++++++++++++++++++++++
| RaiLeff                       |
| Underground__Dora@Hotmail.Com |
+++++++++++++++++++++++++++++++++
comments
We did not receive enough feedback on this tab! Please rate:
print report bad tab
1 2 3 4 5
I want to post or [tab]
guest
You may want to rate the tab now too:
select rating
Please do not post tabs as comments. Select "correction" instead!