Oops, an error
Loading. Please wait.

Long Way Home Bass Tab

version 1
version 1

Whole song

Interactive

566 views 1 this week
no commentswrite comment
1 2 3 4 5
worth learning
x 2
add to favorites
launch autoscroll
font size
0
reset
guitar tuner
Tab Pro tools
  • play this tab
  • loop segment
  • change instrument
  • show fretboard
  • metronome
Autoscroll
slow
fast
+/-
esc
set tempo
stop
Contributor
Difficulty
novice
The Offspring – Long Way Home
Bass Tab

Intro (0:00-0:06)

G----------|
D----------|
A-3-5-7----|
E----------|

Only guitar (0:06-0:011)

Verse (0:11-0:19)

At the end of this bassline, with (4x) I mean you must play the 10th fret 4 times, not 
the whole bassline. I did this, because 10101010 looks kind of confusing.

G-----------------------------------------------------|
D-----------------------------------------------------|
A-12\-77-5-77-5-77-22-55-77-5-77-5-77-22-55-10(4x)----|
E-----------------------------------------------------|

‘On and on this road keeps burning...’ pre-chorus (0:19-0:22)

G-----------------|
D-5-7-5-4-5-4-2-0-|
A-----------------|
E-----------------|

Repeat the verse tab and the pre-chorus part above (0:22-0:33)

Chorus (00:33-00:43) (repeat 3x)

G--------------------|
D-----5555-4444------|
A-7777---------77-55-|
E--------------------|

‘If it´s for me, it´s on the way home’-part

G-------|
D-------|
A-3-5-7-|
E-------|

Part including little drumsolo (00:43-00:49)
G-----------------------|
D-----------------------|
A-77-5-77-5-77-5-77-5-7-|
E-----------------------|

Repeat verse and pre-chorus(00:49-1:10)
Repeat chorus (1:10-1:18)

Bridge (I will go alone...)(1:10-1:50)

G-------------------------------------------------------------|
D----------------------------5-5-555-4-4-444------------------|
A-3-5-7-------------------------------------77-5-77-5-77-5-77-|
E------------0-0-0-0-0-0-0-0----------------------------------|

G-----------------------------------|
D-5-5-555-4-4-444-------------------|
A-----------------77-5-77-5-77-5-77-|
E-----------------------------------|

‘What lies ahead you cannot find for me’ (1:40-1:48)

G--------------------------------------------------|
D--------------------------------------------------|
A-3-3-3-3-3-3-3-3-5-5-5-5-5-5-5-5-22-2-2-22-2-2-22-|
E--------------------------------------------------|

Repeat chorus (1:50-2:10)

‘I will go alone’ (2:10-ending)

G-----|
D-----|
A-3-5-|
E----0| (let ring)
comments
We did not receive enough feedback on this tab! Please rate:
print report bad tab
1 2 3 4 5
I want to post or [tab]
guest
You may want to rate the tab now too:
select rating
Please do not post tabs as comments. Select "correction" instead!