Oops, an error
Loading. Please wait.

Million Miles Away Tab

version 1
version 1

Interactive

1,628 views 6 this week
10 commentsread comments
1 2 3 4 5
worth learning
x 6
add to favorites
launch autoscroll
font size
0
reset
how to read this tab
guitar tuner
Tab Pro tools
  • play this tab
  • loop segment
  • change instrument
  • show fretboard
  • metronome
×
Best way to learn
"Million Miles Away"
Autoscroll
slow
fast
+/-
esc
set tempo
stop
Offspring Million Miles Away (Correct Version).
 Tabbed by Gazza (Gazza190@hotmail.com).
  
----------Offspring - Million Miles Away----------

THIS TAB IS 100% CORRECT BEFORE YOU ASK!

This was tabbed by Gazza (Gazza190@hotmail.com)
Any questions Email me.

INTRO
-------------
-------------
-------99----
-7--77-99----
-7--77-77----
-5--55-------  REAPEAT X2


INTRO BUILD-UP
-----------------------------------------------------
-----------------------------------------------------
-----------------------------------------------------
-4-444-7-777-9-999-12121212-14141414-1616161616161616
-4-444-7-777-9-999-12121212-14141414-1616161616161616
-2-222-5-555-7-777-10101010-12121212-1414141414141414

CHORUS
---------------------------
---------------------------
------9999-1111111111111111
-7777-9999-1111111111111111
-7777-7777-9-9-9-9-9-9-9-9-  
-5555---------------------- Play once then up to 11
                            then straight into verse
VERSE (THIS IS THE CORRECT WAY)
--------------------
--------------------
--------------------
4-----7----14-------
4-----7----14-------
2-X12-5-X5-12-X5---- Play as many times as needed

(Palm Muted all the verse except the first note played
listen to CD u will get what I mean)

POST VERSE
----------------------
----------------------
-------------99999999-
-------------99999999-
-22-44-55-44-77777777-
----------------------

THEN!
-------------------------------------------
-------------------------------------------
-------------999999999999-1111111111111111-
-------------999999999999-1111111111111111-
-22-44-55-44-777777777777-9-9-9-9-9-9-9-9--
-------------------------------------------
          PM|------------| 

CHORUS
---------------------------
---------------------------
------9999-1111111111111111
-7777-9999-1111111111111111
-7777-7777-9-9-9-9-9-9-9-9-  
-5555---------------------- Play once then up to 11 
                            then straight into intro
                            build up
INTRO BUILD UP
-----------------------------------------------------
-----------------------------------------------------
-----------------------------------------------------
-4-444-7-777-9-999-12121212-14141414-1616161616161616
-4-444-7-777-9-999-12121212-14141414-1616161616161616
-2-222-5-555-7-777-10101010-12121212-1414141414141414
(Palm Mute all up to 12 and the first note of each fret you will get what I mean)

CHORUS
---------------------------
---------------------------
------9999-1111111111111111
-7777-9999-1111111111111111
-7777-7777-9-9-9-9-9-9-9-9-  
-5555---------------------- Play once then up to 11
                            then straight into verse

VERSE (THIS IS THE CORRECT WAY)
--------------------
--------------------
--------------------
4-----7----14-------
4-----7----14-------
2-X12-5-X5-12-X5---- Play as many times as needed

POST VERSE
----------------------
----------------------
-------------99999999-
-------------99999999-
-22-44-55-44-77777777-
----------------------

THEN!
-------------------------------------------
-------------------------------------------
-------------999999999999-1111111111111111-
-------------999999999999-1111111111111111-
-22-44-55-44-777777777777-9-9-9-9-9-9-9-9--
-------------------------------------------
          PM|------------| 

CHORUS
---------------------------
---------------------------
------9999-1111111111111111
-7777-9999-1111111111111111
-7777-7777-9-9-9-9-9-9-9-9-  
-5555---------------------- Play once then up to 11
                            then straight into intro 
                            build up

INTRO BUILD UP
-----------------------------------------------------
-----------------------------------------------------
-----------------------------------------------------
-4-444-7-777-9-999-12121212-14141414-1616161616161616
-4-444-7-777-9-999-12121212-14141414-1616161616161616
-2-222-5-555-7-777-10101010-12121212-1414141414141414
(Palm Mute all up to 12 and the first note of each fret you will get what I mean)

SOLO pt1
----------------------------------
-16(bend)16-14-11-16(bend)16-14-16
----------------------------------
----------------------------------
----------------------------------
---------------------------------- X2

SOLO pt2
----------------------------------
----------------------------------
-14-11-11-11-9-11-14-14-14-14-----
----------------------------------
----------------------------------
---------------------------------- X3

SOLO pt3
----------------------------------
----------------------------------
-14-16-14-9-----------------------
----------------------------------
----------------------------------
----------------------------------
SECOND GUITAR PLAYS CHORUS AND INTRO BUILD UP
BEHIND SOLO.

POST VERSE
----------------------
----------------------
-------------99999999-
-------------99999999-
-22-44-55-44-77777777-
----------------------

THEN!
-------------------------------------------
-------------------------------------------
-------------999999999999-1111111111111111-
-------------999999999999-1111111111111111-
-22-44-55-44-777777777777-9-9-9-9-9-9-9-9--
-------------------------------------------
          PM|------------|


CHORUS
---------------------------
---------------------------
------9999-1111111111111111
-7777-9999-1111111111111111
-7777-7777-9-9-9-9-9-9-9-9-  
-5555---------------------- X8
    
FINISHING KEY
---
---
---
-4-
-4-
-2-

THIS IS ALL MY OWN WORK AND IT IS 100% RIGHT. DO NOT USE MY TAB AND CLAIM IT IS YOUR WORK BECAUSE I WILL HUNT YOU DOWN AND KILL YOU! 
PLEASE DONT PUT OUT DUFF TABS BECAUSE THEY ARE A 
RIGHT PAIN IN THE CRACK! IF YOU POST A TAB MAKE SURE
IT IS RIGHT! SOME PEOPLE PUT OUT TABS WHICH ARE WRONG
AND THEY CLAIM THEY ARE RIGHT! R U FUCKING DEAF OR IS YOUR GUITAR WAY OUT OF TUNE OR SOMETHING!

HOPE YOU ENJOYED PLAYING THIS GREAT OFFSPRING SONG!!!! 
:: Ultimate Guitar Archive :: 
http://www.ultimate-guitar.com 



comments
print report bad tab
10 comments total. Showing first comments.
0 reply
andyl83 wrote on January 4 2002, 12:00 am

What happened with the Intro???

0 reply
blinkfizz wrote on February 19 2002, 12:00 am

The intro is really crap, man. Sort it out. blinkfizz

0 reply
Mark Brown wrote on March 8 2002, 12:00 am

Where is the intro? some of the stuff here looks right but the rest is horrible

I want to post or [tab]
guest
You may want to rate the tab now too:
select rating
Please do not post tabs as comments. Select "correction" instead!