Oops, an error
Loading. Please wait.

Million Miles Away Tab

version 4
version 4

Interactive

768 views 1 this week
no commentswrite comment
1 2 3 4 5
please rate
add to favorites
launch autoscroll
font size
0
reset
how to read this tab
guitar tuner
Tab Pro tools
  • play this tab
  • loop segment
  • change instrument
  • show fretboard
  • metronome
×
Best way to learn
"Million Miles Away"
Autoscroll
slow
fast
+/-
esc
set tempo
stop
Million Miles Away by The Offspring. Album: The Offspring-Conspiracy of One(2000)
Any Question Comments send me to briets@email.ru.

# Intro # play X2
E-------------------------|------------------|
B-------------------------|------------------|
G-------------------------|----------9--9-9--|
D---------------2---------|-7--7-7-7-9--9-9--|
A-----4----2---------2h4--|-7--7-7-7-7--7-7--|
E--2-2--2-2--2-2--2-2-----|-5--5-5-5---------|
>
# Intro2 #  (second guitar)
E------------------------------------------------------|
B------------------------------------------------------|
G-----------------------------7-7-7-7-7-7-9-9-9-9-9-9--|
D--4--4-4-4/7--7-7-7/9--9-9-9/7-7-7-7-7-7-9-9-9-9-9-9--|
A--4--4-4-4/7--7-7-7/9--9-9-9/5-5-5-5-5-5-7-7-7-7-7-7--|
E--2--2-2-2/5--5-5-5/7--7-7-7/-------------------------|
>
# Chorus riff # play X2
E-----------------------------------------------------|
B-----------------------------------------------------|
G-11-11-11-11-11-11-11---------------9-9-9-9-9-9-9----|
D-11-11-11-11-11-11-11-7-7-7-7-7-7-7-9-9-9-9-9-9-9----|
A--9--9--9--9--9--9--9-7-7-7-7-7-7-7-7-7-7-7-7-7-7----|
E----------------------5-5-5-5-5-5-5------------------|
>
# Verse # play X4  P-M = palm-muted
E------------------------------------------|
B--------------------------------/-P-M-\---|
G------------------------------9-9-9-9-9---|
D--4-4-4-4-4-4-4-4-4/7-7-7-7-7/9-9-9-9-9---|
A--4-4-4-4-4-4-4-4-4/7-7-7-7-7/7-7-7-7-7---|
E--2-2-2-2-2-2-2-2-2/5-5-5-5-5/------------|
>  \_____P-M______/   \_P-M_/
>    
# Pre-chorus # play X2  
E-------------------------------------------------------------------------------------|
B-------------------------------------------------------------------------------------|
G--4-4/6-6/7-7\6-6-9-9-9-9-9-9-9-9-9-9-9---4-4/6-6/7-7\6-6-9-9-9-9-9-9-9-9-9-9-9-9-9--|
D--4-4/6-6/7-7\6-6-9-9-9-9-9-9-9-9-9-9-9---4-4/6-6/7-7\6-6-9-9-9-9-9-9-9-9-9-9-9-9-9--|
A--2-2/4-4/5-5\4-4-7-7-7-7-7-7-7-7-7-7-7---2-2/4-4/5-5\4-4-7-7-7-7-7-7-7-7-7-7-7-7-7--|
E-------------------------------------------------------------------------------------|
>                                                          \__________P-M__________/ 
Play # Chorus riff # X2, # Intro2 #(use palm-muted), # Chorus riff # X2, # Verse # X4,
# Pre-chorus #, # Chorus riff # ,# Intro2 #(use palm-muted)  
# Solo #  Second guitar play # Chorus riff # X2, # Intro2 #
E----------------------------------------------------------------->
B----------------------------------------------------------------->
G--16-18-14/11~--16-18-14-14/16~--16-18-14/11~--16-18-14-14/16~--->
D--16-16-14/11~--16-16-14-14/16~--16-16-14/11~--16-16-14-14/16~--->
A----------------------------------------------------------------->
E----------------------------------------------------------------->
>
>-------------------------------------------------------------------------------------|
>-------------------------------------------------------------------------------------|
>-----14-11-9-9-11-11-14~----14-11-9-9-11-11-14~----14-11-9-9-11-11-14~--14-16-13-9~--|
>--16---------------------16---------------------16-----------------------------------|
>-------------------------------------------------------------------------------------|
>-------------------------------------------------------------------------------------|
>
Play # Pre-chorus #, # Chorus riff # X8 (last chord 244xxx)!!!

Tabbed by Briets(Andrei),
Tnx to Jack.
comments
We did not receive enough feedback on this tab! Please rate:
print report bad tab
1 2 3 4 5
I want to post or [tab]
guest
You may want to rate the tab now too:
select rating
Please do not post tabs as comments. Select "correction" instead!