Oops, an error
Loading. Please wait.

Mission From God Bass Tab

version 1
version 1

Whole song

Interactive

206 views 1 this week
no commentswrite comment
1 2 3 4 5
please rate
add to favorites
launch autoscroll
font size
0
reset
guitar tuner
Tab Pro tools
  • play this tab
  • loop segment
  • change instrument
  • show fretboard
  • metronome
Autoscroll
slow
fast
+/-
esc
set tempo
stop
Contributor
Difficulty
novice
------------------------------------------------------------------
			     Mission From God - The Offspring
------------------------------------------------------------------

Tabbed By : Billy M
Band: The Offspring
Album: Punk-O-Rama, Vol. 10 
Original Artist: The Pink Spiders

Tuning: Standard

Sorry, this isn't perfect but it gets the job done.

Intro: enter at 00:06 after "Never knew where to go..."
G|-----------------------------------------------------------------------|
D|-----------------------------------------------------------------------|
A|--4--3--1---6--4--3----------------------------------------------------|
E|-----------------------------------------------------------------------|

Verse 1: (x3)
G|-----------------------------------------------------------------------|
D|-----------------------------------------------------------------------|
A|----------------------------4--3--1---6--4--3--------------------------|
E|-1--1-1-1-1-1--4--4-4-4-4-4--------------------------------------------|


Pre-Chorus: "But I made up my mind..."
G|-----------------------------------------------------------------------|
D|-----------------------------------------------------------------------|
A|--8--8-8-8-8-8--6--6-6---8--8-8-8-8-8--6--6-6--------------------------|
E|-----------------------------------------------------------------------|

"I wanna feel important, I wanna feel alive"
G|-----------------------------------------------------------------------|
D|-----------------------------------------------------------------------|
A|-----------------------------------------------------------------------|
E|--4-4-4--1--1-1-1-1--4-4-4--1--1-1-1-1---------------------------------|

"Don't Talk to me, Don't talk to you"
G|-----------------------------------------------------------------------|
D|-----------------------------------------------------------------------|
A|--8--8-8-8-8-8--6--6-6---8--8-8-8-8-8--6--6-6--------------------------|
E|-----------------------------------------------------------------------|

"You know I'm lying, you know the truth"
G|-----------------------------------------------------------------------|
D|-----------------------------------------------------------------------|
A|-----------------------------------------------------------------------|
E|--4-4-4--1--1-1-1-1--4-4-4--1--1-1-1-1---x-x-x-------------------------|


Chorus: "Yeah I'm on a mission from God..."  
G|-------------------------------------|     -----------------------------|
D|-------------------------------------|     -----------------------------|
A|--11-8-8-8-6-8-8-8--8\6-6-6-x-x--x6--|(x3) -/6-6-6-6-6-6-5-6/8-8-8-8-8-8|
E|-----------------------------------6-|     -----------------------------|

Post-Chorus Interlude: (x2)
G|-----------------------------------------------------------------------|
D|-----------------------------------------------------------------------|
A|----------------------6-6-6-6--3-3-3-3-3-------------------------------|
E|--1-1-1-1--4-4-4-4-4---------------------------------------------------|

Verse 2: (x4) "I went to Pensacola just to get an opinion..."
G|-----------------------------------------------------------------------|
D|-----------------------------------------------------------------------|
A|----------------------------4--3--1---6--4--3--------------------------|
E|-1--1-1-1-1-1--4--4-4-4-4-4--------------------------------------------|

PRE-CHORUS

CHORUS

Bridge: (x4)
G|-----------------------------------------------------------------------|
D|-----------------------------------------------------------------------|
A|--8-8-6/8--8--6/8-8-11-8-8-6/8-8-6/8-11-8-6----------------------------|
E|-----------------------------------------------------------------------|
(x3)
G|-------------------------------------------------|
D|-------------------------------------------------|
A|-4-4-4-4-4-4-4-4-8-6-6-6-6-6-6-6-6---8-----------|
E|-------------------------------------------------|

On the fourth time, don't play the second part, end with:
G|------|
D|------|
A|--8-8-|
E|------|

CHORUS

Ending:
G|------------------------|
D|------------------------|
A|--11-8-8/11--8----------|
E|----------------1(ring)-|

| /  slide up
| \  slide down
| h  hammer-on
| p  pull-off
| ~  vibrato
| +  harmonic
| x  Mute note
==========================================================================
comments
We did not receive enough feedback on this tab! Please rate:
print report bad tab
1 2 3 4 5
I want to post or [tab]
guest
You may want to rate the tab now too:
select rating
Please do not post tabs as comments. Select "correction" instead!