Oops, an error
Loading. Please wait.

Mission From God Tab

version 2
version 2

Whole song

Interactive

75 views 1 this week
no commentswrite comment
1 2 3 4 5
please rate
add to favorites
launch autoscroll
font size
0
reset
how to read this tab
guitar tuner
Tab Pro tools
  • play this tab
  • loop segment
  • change instrument
  • show fretboard
  • metronome
Autoscroll
slow
fast
+/-
esc
set tempo
stop
Contributor
----------------------------------------------------------------------------
                             Mission From God - The Offspring
----------------------------------------------------------------------------
Tabbed by: Ryan Armstrong
Email:

Tuning: Standard 
  
This is a realy cool song of the offsprings i think it was going to be on ignition
also known as religio i think it was on punk o rama volume 10 anyway here it is.

  (Intro)
e|---------------------------------------------------------------------|
B|---------------------------------------------------------------------|
G|---------------------------------------------------------------------|
D|---------3-----3---------------3-----3---------------3-----3---------|
A|-3-3-3-3-3-3-3-3-3-3-3-3-3-3-3-3-3-3-3-3-3-3-3-3-3-3-3-3-3-3-3-3-3-3-|
E|-1-1-1-1-1-1-1-1-1-1-1-1-1-1-1-1-1-1-1-1-1-1-1-1-1-1-1-1-1-1-1-1-1-1-|
                        Never knew where to go
  (continued)
e|--------------|
B|--------------|
G|-6-5-3-8-6-5--|
D|-6-5-3-8-6-5--|
A|-4-3-1-6-4-3--|
E|--------------|
  (Verse)
e|------------------------------|
B|------------------------------|Play x4
G|------------------------------|
D|---------3---------6-6-6-6-6--|
A|-3-3-3-3-3-6-6-6-6-6-6-6-6-6--|
E|-1-1-1-1-1-4-4-4-4-4-4-4-4-4--|
  Never used to go to at night
  (continued)
e|--------------|    last e|--------------|
B|--------------|    part B|--------------|
G|-6-5-3-8-6-5--|         G|-6-5-3-8-6----|
D|-6-5-3-8-6-5--|         D|-6-5-3-8-6-6--|   
A|-4-3-1-6-4-3--|         A|-4-3-1-6-4-6--|
E|--------------|         E|-----------4--|
  
  (Pre Chorus)
e|-------------------------------------------------------------|
B|-------------------------------------------------------------|
G|-8-8-8-8-8-8-----8-8-8-8-8-8---------------------------------|
D|-8-8-8-8-8-8-6-6-8-8-8-8-8-8-6-6-3-3-3-3-3-6-6-3-3-3-3-3-6-6-|
A|-6-6-6-6-6-6-6-6-6-6-6-6-6-6-6-6-3-3-3-3-3-6-6-3-3-3-3-3-6-6-|
E|-------------4-4-------------4-4-1-1-1-1-1-4-4-1-1-1-1-1-4-4-|
  
  (Continued)
e|----------------------------------------------------------------------|
B|----------------------------------------------------------------------|
G|-8-8-8-8-8-8-----8-8-8-8-8-8---------------------------------10-10-10-|
D|-8-8-8-8-8-8-6-6-8-8-8-8-8-8-6-6-3-3-3-3-3-6-6-3-3-3-3-3-6-6-10-10-10-|
A|-6-6-6-6-6-6-6-6-6-6-6-6-6-6-6-6-3-3-3-3-3-6-6-3-3-3-3-3-6-6--8--8--8-|
E|-------------4-4-------------4-4-1-1-1-1-1-4-4-1-1-1-1-1-4-4----------|
  (Chorus)
e|--------------------------------------------|
B|--------------------------------------------|Play x3
G|-13/10-10-10-8-8-10-10-10/8-x-x-x-x-8-------|
D|-13/10-10-10-8-8-10-10-10/8-x-x-x-x-8-8-8-8-|
A|-11/-8--8--8-6-6--8--8--8/6-x-x-x-x-6-8-8-8-|
E|--------------------------------------6-6-6-|
  Ending Chorus
e|---------------------------------------|
B|---------------------------------------|
G|---6-6-6-6-6-6-6-6---8-8-8-8-8-8-8-8---|
D|-6-6-6-6-6-6-6-6-6-6-8-8-8-8-8-8-8-8-8-|
A|-6-4-4-4-4-4-4-4-4-6-6-6-6-6-6-6-6-6-8-|
E|-4-----------------4-----------------6-|

e|-------------------------|
B|-------------------------| Plau x2
G|-------------6-6-6-5-5-5-|
D|-3-3-3-6-6-6-6-6-6-5-5-5-|
A|-3-3-3-6-6-6-4-4-4-3-3-3-|
E|-1-1-1-4-4-4-------------|
  (Verse)
e|------------------------------|
B|------------------------------|Play x4
G|------------------------------|
D|---------3---------6-6-6-6-6--|
A|-3-3-3-3-3-6-6-6-6-6-6-6-6-6--|
E|-1-1-1-1-1-4-4-4-4-4-4-4-4-4--|
  Never used to go to at night
  (continued)
e|--------------|    last e|--------------|
B|--------------|    part B|--------------|
G|-6-5-3-8-6-5--|         G|-6-5-3-8-6----|
D|-6-5-3-8-6-5--|         D|-6-5-3-8-6-6--|   
A|-4-3-1-6-4-3--|         A|-4-3-1-6-4-6--|
E|--------------|         E|-----------4--|
  (Pre Chorus)
e|-------------------------------------------------------------|
B|-------------------------------------------------------------|
G|-8-8-8-8-8-8-----8-8-8-8-8-8---------------------------------|
D|-8-8-8-8-8-8-6-6-8-8-8-8-8-8-6-6-3-3-3-3-3-6-6-3-3-3-3-3-6-6-|
A|-6-6-6-6-6-6-6-6-6-6-6-6-6-6-6-6-3-3-3-3-3-6-6-3-3-3-3-3-6-6-|
E|-------------4-4-------------4-4-1-1-1-1-1-4-4-1-1-1-1-1-4-4-|
  (Continued)
e|----------------------------------------------------------------------|
B|----------------------------------------------------------------------|
G|-8-8-8-8-8-8-----8-8-8-8-8-8---------------------------------10-10-10-|
D|-8-8-8-8-8-8-6-6-8-8-8-8-8-8-6-6-3-3-3-3-3-6-6-3-3-3-3-3-6-6-10-10-10-|
A|-6-6-6-6-6-6-6-6-6-6-6-6-6-6-6-6-3-3-3-3-3-6-6-3-3-3-3-3-6-6--8--8--8-|
E|-------------4-4-------------4-4-1-1-1-1-1-4-4-1-1-1-1-1-4-4----------|
  (Chorus)
e|--------------------------------------------|
B|--------------------------------------------|Play x3
G|-13/10-10-10-8-8-10-10-10/8-x-x-x-x-8-------|
D|-13/10-10-10-8-8-10-10-10/8-x-x-x-x-8-8-8-8-|
A|-11/-8--8--8-6-6--8--8--8/6-x-x-x-x-6-8-8-8-|
E|--------------------------------------6-6-6-|
  (Ending Chorus)
e|---------------------------------------|
B|---------------------------------------|
G|---6-6-6-6-6-6-6-6---8-8-8-8-8-8-8-8---|
D|-6-6-6-6-6-6-6-6-6-6-8-8-8-8-8-8-8-8-8-|
A|-6-4-4-4-4-4-4-4-4-6-6-6-6-6-6-6-6-6-8-|
E|-4-----------------4-----------------6-|
  (Bridge play) x4
e|-----------------------------------------------|
B|-----------------------------------------------|
G|-8/10-10-8/10-10-8/10-10-13-8/10-10-8/10-10-13-|
D|-8/10-10-8/10-10-8/10-10-13-8/10-10-8/10-10-13-|
A|-6/-8--9-6/-8--8-6/-8--8-11-6/-8--8-6/-8--8-11-|
E|-----------------------------------------------|
  (Continued)
e|-------------------------------------------------------------| 
B|-------------------------------------------------------------|
G|---6-6-6-6-6-6-6-6---8-8-8-8-8-8-8-8-----(10-10)-add-this----|
D|-6-6-6-6-6-6-6-6-6-6-8-8-8-8-8-8-8-8-8-8-(10-10)-at-the-last-|
A|-6-4-4-4-4-4-4-4-4-6-6-6-6-6-6-6-6-6-8-8-(-8--8)-time--------|
E|-4-----------------4-----------------6-6---------------------|
  (Chorus)
e|--------------------------------------------|
B|--------------------------------------------|Play x3
G|-13/10-10-10-8-8-10-10-10/8-x-x-x-x-8-------|
D|-13/10-10-10-8-8-10-10-10/8-x-x-x-x-8-8-8-8-|
A|-11/-8--8--8-6-6--8--8--8/6-x-x-x-x-6-8-8-8-|
E|--------------------------------------6-6-6-|
  (Outro)
e|----------------------------------------|
B|----------------------------------------|
G|-13/10-10-10-8-8-10-10-10-13/10-13/10---|
D|-13/10-10-10-8-8-10-10-10-13/10-13/10-3-|
A|-11/-8--8--8-6-6--8--8--8-11/-8-11/-8-3-|
E|--------------------------------------1-|

well that it hope you enjoy it, its quite hard at first but its a fun song
see ya later.


| /  slide up
| \  slide down
| h  hammer-on
| p  pull-off
| ~  vibrato
| +  harmonic
| x  Mute note
===============================================================================
comments
We did not receive enough feedback on this tab! Please rate:
print report bad tab
1 2 3 4 5
I want to post or [tab]
guest
You may want to rate the tab now too:
select rating
Please do not post tabs as comments. Select "correction" instead!