Oops, an error
Loading. Please wait.

Never Gonna Find Me Tab

version 2
version 2

Whole song

Interactive

2,935 views 3 this week
no commentswrite comment
1 2 3 4 5
excellent!
x 5
add to favorites
launch autoscroll
font size
0
reset
how to read this tab
guitar tuner
Tab Pro tools
  • play this tab
  • loop segment
  • change instrument
  • show fretboard
  • metronome
×
Best way to learn
"Never Gonna Find Me"
Autoscroll
slow
fast
+/-
esc
set tempo
stop
Contributor
Difficulty
novice
Artist: The Offspring
Song: Never Gonna Find Me
Tuning: Standard EADGBe
Tabber: Dan Fallows (Sick of you)

I've seen a few average tabs submitted, so i had a crack at it.

Intro ''on a mission started by my own admission''
e|---------------------------------|
B|---------------------------------|
G|--88888-------------1111--88888--|
D|--88888--66666--99--1111--88888--| x4
A|--66666--66666--99--9-9---66666--| 
E|---------44444--77---------------|

''Never gonna find me...Never Gonna find me''
e|-----------------|
B|-----------------|
G|--888888--11--6--|
D|--888888--11--6--| x2
A|--666666---9--4--|
E|-----------------|

''Well real down deep inside..''
e|-------------------------------------|
B|-------------------------------------|
G|-------------------------------------|
D|--88888--444444--66666--999--111111--|
A|--88888--444444--66666--999--111111--|
E|--66666--222222--44444--777---9-9-9--|
                          xx    x x

''Never gonna find me...Never Gonna find me''
e|-----------------|
B|-----------------|
G|--888888--11--6--|
D|--888888--11--6--| x2
A|--666666---9--4--|
E|-----------------|

''Well real down deep inside..''
e|-------------------------------------|
B|-------------------------------------|
G|-------------------------------------|
D|--88888--444444--66666--999--111111--|
A|--88888--444444--66666--999--111111--|
E|--66666--222222--44444--777---9-9-9--|
                          xx    x x

''On a mission to establish my attrition''
e|------------------------------|
B|------------------------------|
G|--8888------------1111--8888--|
D|--8888--6666--99--1111--8888--| x4
A|--6666--6666--99---9-9--6666--| 
E|--------4444--77--------------|

''Never gonna find me...Never Gonna find me''
e|-----------------|
B|-----------------|
G|--888888--11--6--|
D|--888888--11--6--| x2
A|--666666---9--4--|
E|-----------------|

''Well real down deep inside..''
e|-------------------------------------|
B|-------------------------------------|
G|-------------------------------------|
D|--88888--444444--66666--999--111111--|
A|--88888--444444--66666--999--111111--|
E|--66666--222222--44444--777---9-9-9--|
                          xx    x x

''Never gonna find me...Never Gonna find me''
e|-----------------|
B|-----------------|
G|--888888--11--6--|
D|--888888--11--6--| x2
A|--666666---9--4--|
E|-----------------|

''Well real down deep inside..''
e|-------------------------------------|
B|-------------------------------------|
G|-------------------------------------|
D|--88888--444444--66666--999--111111--|
A|--88888--444444--66666--999--111111--|
E|--66666--222222--44444--777---9-9-9--|
                          xx    x x

''Break away..run...down inside..ive got to''       
e|---------------------|-----------------------|
B|---------------------|-----------------------|
G|--888-----------888--|--888------------------|
D|--888--66--999--888--|--888--66--99999--222--|
A|--666--66--999--666--|--666--66--99999--222--|
E|-------44--777-------|-------44--77777--000--|

Then play this
e|----------------------------|
B|----------------------------|
G|--88888---------------------|Repeat this part x2
D|--88888--66666--99999--222--|
A|--66666--66666--99999--222--|
E|---------44444--77777--000--|
    xxxx   xxxx   xxxx

Slow strumming part, repeat until song breaks off
e|---------------------------|
B|---------------------------|
G|--8888---------------------|
D|--8888--6666--9999--22222--| x4
A|--6666--6666--9999--22222--| 
E|--------4444--7777--00000--|

This is an optional extra 
''woah oh oh''
e|-------------------------------|
B|-------------------------------|
G|--8888--4444--6666--11--10--8--|
D|--xxxx--xxxx--xxxx---x---x--x--|
A|--6666--2222--4444---9---8--6--|
E|-------------------------------|
comments
print report bad tab
I want to post or [tab]
guest
You may want to rate the tab now too:
select rating
Please do not post tabs as comments. Select "correction" instead!