Oops, an error
Loading. Please wait.

Next To You Bass Tab

version 1
version 1

Whole song

Interactive

530 views 3 this week
1 commentread comment
1 2 3 4 5
excellent!
x 1
add to favorites
launch autoscroll
font size
0
reset
guitar tuner
Tab Pro tools
  • play this tab
  • loop segment
  • change instrument
  • show fretboard
  • metronome
Autoscroll
slow
fast
+/-
esc
set tempo
stop
Contributor
++++++++++++++++++++++++++++++
| The Offspring- Next To You |
++++++++++++++++++++++++++++++

Ok guys here is a great cover 
original artist The Police

Greatest Hits album, hidden track, 
14. (Cant Get My) Head Around You --> 3:15

EADG

Verse
"I cant stand it for another day..."
1.
G|-------------------------------------------------------------------------|
D|-------------------------------------------------------------------------|
A|-55----------------55----------------55----------------55----------------|
E|---350-00000000000---350-00000000000---350-00000000000---350-00000000000-|

"I sold my house..."
2.
G|-------------------------------------------------------------------------|
D|-------------------------------------------------------------------------|
A|-55----------------55----------------55----------------55----------------|
E|---350-00000000000---350-00000000000---350-00000000000---350-0x----------|

Chorus
"What can I do?"
3.
G|-----------------------------------------------|
D|-----------------------------------------------|
A|-44444-55555-77777-77777-44444-55555-77777-777-|
E|-----------------------------------------------|

Verse
"I've had a thousand girls..."
4.
G|-------------------------------------------------------------------------|
D|-------------------------------------------------------------------------|
A|-55----------------55----------------55----------------55----------------|
E|---350-00000000000---350-00000000000---350-00000000000---350-0x----------|

Chorus
"What can I do?"                           "All I want is to be next to you!"
4.
G|-------------------------------------------------------------------------------------|
D|-------------------------------------------------------------------------------------|
A|-44444-55555-77777-77777-44444-55555-77777-77777-55555-55555-77777-77777-55555-55555-|
E|-------------------------------------------------------------------------------------|

Bridge
5.
G|-------------------------------------------------|
D|----55-3-2x-----55-3-2x-----55-3-2x-----55-3-2x--|
A|-------------------------------------------------|
E|-33----------33----------33----------33----------|

6.
G|-------------------------------------------------|
D|----77-5-4x-----77-5-4x-----77-5-4x-----77-5-4x--|
A|-00----------00----------00----------00----------|
E|-------------------------------------------------|

"So many times I used to give a sign..."
7.
G|---------------------------------------------------------------------|
D|---------------------------------------------------------------------|
A|-55--------------------57--57--57--55--------------------57--57--57--|
E|---350-000000000000000---00--00--0---350-000000000000000---00--00--0-|

8.
G|---------------------------------------------------------|
D|---------------------------------------------------------|
A|-55--------------------57--57--57--55--------------------|
E|---350-000000000000000---00--00--0---350-000000000000000-|

Chorus
"What can I do?"                           "All I want is to be next to you!"
9.
G|-------------------------------------------------------------------------------------------------|
D|-------------------------------------------------------------------------------------------------|
A|-44444-55555-77777-77777-44444-55555-77777-77777-44444-55555-77777-77777-44444-55555-77777-77777-|
E|-------------------------------------------------------------------------------------------------|

"All I want is to be next to you!"
10.
G|-------------------------------------------------------------------------|
D|-------------------------------------------------------------------------|
A|-55555-55555-77777-77777-55555-55555-77777-77777-55555-55555-77777-77777-|
E|-------------------------------------------------------------------------|

Play until song fades

Lyrics:

I can't stand it for another day
When you live so many miles away.
Nothing here is gonna make me stay,
You took me over, let me find a way.

I sold my house
I sold my motor, too.
All I want is to be Next To You.
I'd rob a bank
Maybe steal a plane.
You took me over,
Think I'm goin' insane.

What can I do,
All I want is to be next to you.

I've had a thousand girls or maybe more,
But I've never felt like this before.
But I just don't know what's come over me,
You took me over, take a look at me.

So many times I used to give a sign
Got this feeling, gonna lose my mind.
When all it is is just a love affair.
You took me over baby, take me there.

+++++++++++++++++++++++++++++++++
| RaiLeff                       |
| Underground__Dora@Hotmail.Com |
+++++++++++++++++++++++++++++++++
comments
We did not receive enough feedback on this tab! Please rate:
print report bad tab
1 2 3 4 5
1 comment total.
0 reply
wiebegaag wrote on July 29 2015, 09:31 am

thank you!! 5 stars for you

I want to post or [tab]
guest
You may want to rate the tab now too:
select rating
Please do not post tabs as comments. Select "correction" instead!