Oops, an error
Loading. Please wait.

Nitro Tab

version 2
version 2

Whole song

Interactive

2,479 views 3 this week
no commentswrite comment
1 2 3 4 5
excellent!
x 1
add to favorites
launch autoscroll
font size
0
reset
how to read this tab
guitar tuner
Tab Pro tools
  • play this tab
  • loop segment
  • change instrument
  • show fretboard
  • metronome
Autoscroll
slow
fast
+/-
esc
set tempo
stop
Contributor
Intro

e:|-------------------------------------------------------------
B:|----------------9--------------------------------------------
G:|-10-------------8--10--8--10---------8--8--------------------
D:|-10----------------10--8--10--6--6---8--8--------------------
A:|--8---8-8-8-8-----------------6--6---6--6--------------------
E:|------------------------------4--4---------------------------
PM       *******     

I URGE YOU TO LISTEN TO THE SONG!!1

VERSE
                  PLAY 3X THEN
e:|---------------------------|---------------------------------
B:|---------------------------|---------------------------------
G:|-10----10------------8--8--|---6-6-6-6-6--------------8------
D:|-10----10------6--6--8--8--|---6-6-6-6-6--8-8-8-8-8-8-8------ REPEAT 1ST PART
A:|--8-----8------6--6--6--6--|---4-4-4-4-4--6-6-6-6-6-6-6------ 2X MORE
E:|---------------4--4--------|--------------------------6------ FOR CHORUS

THEN

e:|-------------------------------------------------------------
B:|-------------------------------------------------------------
G:|-------------------------------------------------------------
D:|---3--3--3---3--3--6--6----6--6---6--6--8--8--8--8--8--8-----
A:|---3--3-3----3--3--6--6----6--6---6--6--8--8--8--8--8--8-----
E:|---1--1-1----1--1--4--4----4--4---4--4--6--6--6--6--6--6-----
       THERE'S NO TOMORROW
e:|-------------------------------------------------------------
B:|-------------------------------------------------------------
G:|---6---6-6-6-6-8-8-8-8---------------------------------------
D:|---6---6-6-6-6-8-8-8-8---------------------------------------
A:|---4---4-4-4-4-6-6-6-6---------------------------------------
E:|-------------------------------------------------------------

bridge
e:|-------------------------------------------------------------
B:|-------------------------------------------------------------
G:|--10-10-----------------------8--8--10-10--------------------
D:|--10-10----------------6--6---8--8--10-10--------------------
A:|---8--8----------------6--6---6--6---8--8--------------------
E:|-----------------------4--4----------------------------------

e:|-------------------------------------------------------------
B:|-------------------------------------------------------------
G:|----------------------------------------666666666-88888888888
D:|----------------------------------------666666666-88888868888
A:|----------------------------------------444444444-66666666666
E:|-1-1-1-1-1-1-4-4-4-4-4-4-6-6-6-6-6-6-6-----------------------
PM  **************************************

INTERLUDER
e:|---------------------------------------------------------RING
B:|------------------------------------------------1------------
G:|---7-7-7-7-7--7-7-3-------------------------333-1-----333-6-8
D:|---7-7-7-7-7--7-7-3-6-6-6-6-6-6-6-3333333333333-1--333333-6-8
A:|---5-5-5-5-5--5-5-1-6-6-6-6-6-6-6-1111113333111----333111|4-6
E:|--------------------4-4-4-4-4-4-4-------1111-------111-------

OUTRO
   pLAY OVER A LOW F5      X2 THEN:     LET THESE RING
e:|---4-------4-------4-----4----|---4:-----------4:------------
B:|-------6-------6------6-----6-|--------6:------------6:------
G:|------------------------------|------------------------------
D:|------------------------------|------------------------------
A:|------------------------------|------------------------------
E:|------------------------------|------------------------------


SCHEIZERS THAT WAS A LONG ONE, ON SOME THE AMOUNTS OF NOTES ARE WRONG
BUT MY BAND PLAYS THIS LIVE CONSTANTLY: JUST SSTRUM AWAY AND YOU'LL BE FINE!!!

------DANC446      danc_accuratetabs@yahoo.com

******Made for ultimate-guitar.com PLEASE REPORT IF FOUND ELSEWHERE*****
comments
We did not receive enough feedback on this tab! Please rate:
print report bad tab
1 2 3 4 5
I want to post or [tab]
guest
You may want to rate the tab now too:
select rating
Please do not post tabs as comments. Select "correction" instead!