Oops, an error
Loading. Please wait.

No Brakes Bass Tab

version 1
version 1

Whole song

Interactive

504 views 1 this week
2 commentsread comments
1 2 3 4 5
accurate
x 5
add to favorites
launch autoscroll
font size
0
reset
guitar tuner
Tab Pro tools
  • play this tab
  • loop segment
  • change instrument
  • show fretboard
  • metronome
×
Best way to learn
"No Brakes"
Autoscroll
slow
fast
+/-
esc
set tempo
stop
The Offspring
No brakes
Americana
by Punky Jerk

~make your own rythm!~
verse
G:--------------------------|
D:--------------------------|
A:---------------3333-5555-|
E:000--033-355-5-----------|

chorus
G:-----------------------|
D:-----------------------|
A:-----5555-333333-0-5-|
E:3333-------------------|

end chorus
G:-----------------------|
D:--------555-------775-|
A:-7-5-7------7-5-7-----|
E:-----------------------|

verse(x5)
Chorus(x2)
End chorus(x2)
Verse(x4)
Chorus(x2)
End chorus(x5)
Chorus(x4)
End chorus(x2)


comments
print report bad tab
2 comments total.
0 reply
LuisFM wrote on May 6 2004, 12:00 am

in the |------5-5-5-| part i'd replace the last 5(G) by a 4(F#)
|7-5-7-------|

0 reply
LuisFM wrote on May 6 2004, 12:00 am

in the |------5-5-5-| part i'd replace the last 5(G) by a 4(F#)
|7-5-7-------|

I want to post or [tab]
guest
You may want to rate the tab now too:
select rating
Please do not post tabs as comments. Select "correction" instead!