Oops, an error
Loading. Please wait.

No Brakes Bass Tab

version 2
version 2

Whole song

Interactive

1,262 views 1 this week
no commentswrite comment
1 2 3 4 5
excellent!
x 3
add to favorites
launch autoscroll
font size
0
reset
guitar tuner
Tab Pro tools
  • play this tab
  • loop segment
  • change instrument
  • show fretboard
  • metronome
×
Best way to learn
"No Brakes"
Autoscroll
slow
fast
+/-
esc
set tempo
stop
Contributor
Verse

G|-------------------------------------------------------|
D|-------------------------------------------------------|
A|--7-7-----7\------------------10-10-10-10\9--9-/10-10\-| x2
E|------------3-3----3/5-5----5/-------------------------|

G|-------------------------------------------------------|
D|-------------------------------------------------------|
A|--7-7-XXX-7\------------------10-10-10-10\9--9-/10-10\-| x2
E|------------3-3-XX-3/5-5-XX-5/-------------------------|

Chorus

G|-----------------------------------------------------------|
D|-----------------------------------------------------------|
A|----------------5-5---5---5--5\3-3---3---3--3-3-2--3--5-55-| x2
E|-3-3---3---3--3/-------------------------------------------|

G|----------------------------------------------|
D|----------------------------------------------|
A|--7--7-5--7---10-10-9---7--7-5--7---12-12-10--| x2
E|----------------------------------------------|

Bass Interlude

G|----------------------------------------------|
D|----------------------------------------------|
A|--7--7-5--7---10-10-9---7--7-5--7---12-12-10--| x2
E|----------------------------------------------|

The very last chorus ends on the last 7, i.e.:

G|----------------------------------------------|
D|----------------------------------------------|
A|--7--7-5--7---10-10-9---7--7-5--7\------------|
E|----------------------------------------------|
comments
We did not receive enough feedback on this tab! Please rate:
print report bad tab
1 2 3 4 5
I want to post or [tab]
guest
You may want to rate the tab now too:
select rating
Please do not post tabs as comments. Select "correction" instead!