Oops, an error
Loading. Please wait.

No Brakes Tab

version 3
version 3

Whole song

Interactive

1,571 views 1 this week
no commentswrite comment
1 2 3 4 5
excellent!
x 3
add to favorites
launch autoscroll
font size
0
reset
how to read this tab
guitar tuner
Tab Pro tools
  • play this tab
  • loop segment
  • change instrument
  • show fretboard
  • metronome
×
Best way to learn
"No Brakes"
Autoscroll
slow
fast
+/-
esc
set tempo
stop
The Offspring

"No Brakes" from album 'Americana' 

Tabbed by Liam Jemmeson

x = palm mute
\ = slide down
/ = slide up
~ = let ring

All Distortion

Verse i: x2
E----------------------------------------------------------------|
B----------------------------------------------------------------|
G----------------------------------------------------------------|
D-9-9---9\----------------12-12-12-12-11-12----------------------|
A-7-7---7\5-5---5/7-7---7/10-10-10-10-9--10----------------------|
E---------3-3---3/5-5---5/---------------------------------------|

Verse ii: x2
E----------------------------------------------------------------|
B----------------------------------------------------------------|
G----------------------------------------------------------------|
D-9-9x-xx-x-xxx-----------------------------12-12-12-12-11-12----|
A-7-7x-xx-x-xxx-5-5x-xx-x-xxx-7-7x-xx-x-xxx-10-10-10-10-9--10----|
E---------------3-3x-xx-x-xxx-5-5x-xx-x-xxx----------------------|

Chorus: x2
E----------------------------------------------------------------|
B----------------------------------------------------------------|
G----------------------------------------------------------------|
D-----------77777777--55555555-55-44-55-77-----------------------|
A-55555555--55555555--33333333-33-22-33-55-----------------------|
E-33333333-------------------------------------------------------|

Post chorus: x2                        
E-----------------------------------| 
B-----------------------------------|  
G-------------------------9-9/10-7--|
D-9-7-9--12-12-11--9-7-9--7-7/8--5--| 
A-7-5-7--10-10-9---7-5-7------------| 
E-----------------------------------|  

Verse i: x2
E----------------------------------------------------------------|
B----------------------------------------------------------------|
G----------------------------------------------------------------|
D-9-9---9\----------------12-12-12-12-11-12----------------------|
A-7-7---7\5-5---5/7-7---7/10-10-10-10-9--10----------------------|
E---------3-3---3/5-5---5/---------------------------------------|

Verse ii: x2
E----------------------------------------------------------------|
B----------------------------------------------------------------|
G----------------------------------------------------------------|
D-9-9x-xx-x-xxx-----------------------------12-12-12-12-11-12----|
A-7-7x-xx-x-xxx-5-5x-xx-x-xxx-7-7x-xx-x-xxx-10-10-10-10-9--10----|
E---------------3-3x-xx-x-xxx-5-5x-xx-x-xxx----------------------|

Chorus: x2
E----------------------------------------------------------------|
B----------------------------------------------------------------|
G----------------------------------------------------------------|
D-----------77777777--55555555-55-44-55-77-----------------------|
A-55555555--55555555--33333333-33-22-33-55-----------------------|
E-33333333-------------------------------------------------------|

Post chorus: x2                        
E-----------------------------------|  |-----------|
B-----------------------------------|  |-----------|
G-------------------------9-9/10-7--|  |-----------|
D-9-7-9--12-12-11--9-7-9--7-7/8--5--|  |-2~--------|
A-7-5-7--10-10-9---7-5-7------------|  |-2~--------|
E-----------------------------------|  |-0~--------|

And again... x2
E-----------------------------------| 
B-----------------------------------|  
G-------------------------9-9/10-7--|
D-9-7-9--12-12-11--9-7-9--7-7/8--5--| 
A-7-5-7--10-10-9---7-5-7------------| 
E-----------------------------------|  

Chorus x4
E----------------------------------------------------------------|
B----------------------------------------------------------------|
G----------------------------------------------------------------|
D-----------77777777--55555555-55-44-55-77-----------------------|
A-55555555--55555555--33333333-33-22-33-55-----------------------|
E-33333333-------------------------------------------------------|

Finish on:
E-----------------------------------| 
B-----------------------------------|  
G-------------------------9-9/10-7--|
D-9-7-9--12-12-11--9-7-9--7-7/8--5--| 
A-7-5-7--10-10-9---7-5-7------------| 
E-----------------------------------|  
 
And Finally
E-----------------------------------| 
B-----------------------------------|  
G------------------9--7--9----------|
D-9-7-9--12-12-11--9--7--9----------| 
A-7-5-7--10-10-9---7--5--7----------| 
E-----------------------------------| 

The end...
comments
We did not receive enough feedback on this tab! Please rate:
print report bad tab
1 2 3 4 5
I want to post or [tab]
guest
You may want to rate the tab now too:
select rating
Please do not post tabs as comments. Select "correction" instead!