Oops, an error
Loading. Please wait.

No Hero Tab

version 2
version 2

Whole song

2,933 views 3 this week
2 commentsread comments
1 2 3 4 5
excellent!
x 3
add to favorites
launch autoscroll
font size
0
reset
how to read this tab
guitar tuner
Tab Pro tools
  • play this tab
  • loop segment
  • change instrument
  • show fretboard
  • metronome
Autoscroll
slow
fast
+/-
esc
set tempo
stop
Contributor
Difficulty
novice
OFFSPRING - NO HERO

Tabbed by: Savas Varadas (samhain_138@hotmail.com)

Tuning: Standard (E A D G B E)

Follow allow with the song for the rythmn

Intro - Slight Distortion
E|-------------------------------------------------------------------||
B|-------------------------------------------------------------------||
G|-----11-X-12-12---7-X-7-9-9---------7-7----------------------------||
D|-9-X-11-X-12-12---7-X-7-9-9---7-X-7-7-7---9--(repeat)--------------||
A|-9-X-9--X-10-10---5-X-5-7-7---7-X-7-5-5---9------------------------||
E|-7-X--------------------------5-X-5-------7------------------------||

Same but with Distortion
E|-------------------------------------------------------------------||
B|-------------------------------------------------------------------||
G|-----11---12-12---7---7-9-9---------7-7----------------------------||
D|-9---11---12-12---7---7-9-9---7---7-7-7---9--(repeat)--------------||
A|-9---9----10-10---5---5-7-7---7---7-5-5---9------------------------||
E|-7----------------------------5---5-------7------------------------||

Verse 1
   PM........................................
E|-------------------------------------------------------------------||
B|-------------------------------------------------------------------||
G|-----11-X-12-12---7-X-7-9-9---------7-7----------------------------||
D|-9-X-11-X-12-12---7-X-7-9-9---7-X-7-7-7---9--(repeat four times)---||
A|-9-X-9--X-10-10---5-X-5-7-7---7-X-7-5-5---9------------------------||
E|-7-X--------------------------5-X-5-------7------------------------||

Pre-Chorus
E|-------------------------------------------------------------------||
B|-------------------------------------------------------------------||
G|-9-9-7-----7-------7-------7---9-9-7-------11----------------------||
D|-9-9-7-9-9-7---4-4-7---9-9-7---9-9-7-9-9---11----------------------||
A|-7-7-5-9-9-5---4-4-5---9-9-5---7-7-5-9-9---9-----------------------||
E|-------7-7-----2-2-----7-7-----------7-7---------------------------||

Chorus 1
E|-------------------------------------------------------------------||
B|-------------------------------------------------------------------||
G|-12------9-----12------9-----12------9-----11----------------------||
D|-12--12--9-----12--12--9-----12--12--9-----11----------------------||
A|-10--12--7-----10--12--7-----10--12--7-----9-----------------------||
E|-----10------------10------------10--------------------------------||

Verse 2
   PM........................................
E|-------------------------------------------------------------------||
B|-------------------------------------------------------------------||
G|-----11-X-12-12---7-X-7-9-9---------7-7----------------------------||
D|-9-X-11-X-12-12---7-X-7-9-9---7-X-7-7-7---9--(repeat six times)----||
A|-9-X-9--X-10-10---5-X-5-7-7---7-X-7-5-5---9------------------------||
E|-7-X--------------------------5-X-5-------7------------------------||

Pre-Chorus
E|-------------------------------------------------------------------||
B|-------------------------------------------------------------------||
G|-9-9-7-----7-------7-------7---9-9-7-------11----------------------||
D|-9-9-7-9-9-7---4-4-7---9-9-7---9-9-7-9-9---11----------------------||
A|-7-7-5-9-9-5---4-4-5---9-9-5---7-7-5-9-9---9-----------------------||
E|-------7-7-----2-2-----7-7-----------7-7---------------------------||

Chorus 2
E|-------------------------------------------------------------------||
B|-------------------------------------------------------------------||
G|-12------9-----12------9-----12------9-----11----------------------||
D|-12--12--9-----12--12--9-----12--12--9-----11---(repeat)-----------||
A|-10--12--7-----10--12--7-----10--12--7-----9-----------------------||
E|-----10------------10------------10--------------------------------||

Interlude (*=Guitar 2)            PM.................
E|-----------------*7-6----------------------------------------------||
B|-----------------------8-7-----------------------------------------||
G|-------------------------------------------------------------------||
D|-9-------9-9-------------------------------------------------------||
A|-9-------9-9------2/1-----------2-2-0-2-0-------4-5--2-2-0-2-0-----||
E|-7-------7-7-----------3-2----------------2-2-2----------------2-2-||

  ...                                PM...
E|-------------------------------------------------------------------||
B|-------------------------------------------------------------------||
G|--------12-12-12--11-11-11-----------------------------------------||
D|--------12-12-12--11-11-11--9--------------------------------------||
A|--------10-10-10--9--9--9---9------9-9-9-9-9-9-9-9-9-9-9-9-9-9-9-9-||
E|-2-3-2----------------------7--------------------------------------||

   PM..................................
E|-------------------------------------------------------------------||
B|-------------------------------------------------------------------||
G|-------------------------------------------12-12-12--11-11-11------||
D|-------------------------------------------12-12-12--11-11-11--9---||
A|-2-2-0-2-0-------4-5--2-2-0-2-0------------10-10-10--9--9--9---9---||
E|-----------2-2-2----------------2-2-2-3-2----------------------7---||

   PM..................................
E|-------------------------------------------------------------------||
B|-------------------------------------------------------------------||
G|-------------------------------------------------------------------||
D|-------------------------------------------(play four times)-------||
A|-2-2-0-2-0-------4-5--2-2-0-2-0------------------------------------||
E|-----------2-2-2----------------2-2-2-3-2--------------------------||

E|-------------------------------------------------------------------||
B|-------------------------------------------------------------------||
G|-----11---12-12---7---7-9-9---------7-7----------------------------||
D|-9---11---12-12---7---7-9-9---7---7-7-7---9--(repeat)--------------||
A|-9---9----10-10---5---5-7-7---7---7-5-5---9------------------------||
E|-7----------------------------5---5-------7------------------------||

Verse 3
   PM........................................
E|-------------------------------------------------------------------||
B|-------------------------------------------------------------------||
G|-----11-X-12-12---7-X-7-9-9---------7-7----------------------------||
D|-9-X-11-X-12-12---7-X-7-9-9---7-X-7-7-7---9--(repeat four times)---||
A|-9-X-9--X-10-10---5-X-5-7-7---7-X-7-5-5---9------------------------||
E|-7-X--------------------------5-X-5-------7------------------------||

Pre-Chorus
E|-------------------------------------------------------------------||
B|-------------------------------------------------------------------||
G|-9-9-7-----7-------7-------7---9-9-7-------11----------------------||
D|-9-9-7-9-9-7---4-4-7---9-9-7---9-9-7-9-9---11----------------------||
A|-7-7-5-9-9-5---4-4-5---9-9-5---7-7-5-9-9---9-----------------------||
E|-------7-7-----2-2-----7-7-----------7-7---------------------------||

Chorus 3
E|-------------------------------------------------------------------||
B|-------------------------------------------------------------------||
G|-12------9-----12------9-----12------9-----11-------------11-------||
D|-12--12--9-----12--12--9-----12--12--9-----11---(repeat)--11-------||
A|-10--12--7-----10--12--7-----10--12--7-----9--------------9--------||
E|-----10------------10------------10--------------------------------||
comments
We did not receive enough feedback on this tab! Please rate:
print report bad tab
1 2 3 4 5
2 comments total.
0 reply
Jericho811 wrote on November 19 2008, 08:47 am

havent played yet but looks good

0 reply
Jericho811 wrote on November 19 2008, 02:12 pm

no after i played it...good job the only thing i thinks is wrong is that
E|-------------------------------------------------------------------||
B|-------------------------------------------------------------------||
G|--------12-12-12--11-11-11-----------------------------------------||
D|--------12-12-12--11-11-11--9--------------------------------------||
A|--------10-10-10--9--9--9---9------9-9-9-9-9-9-9-9-9-9-9-9-9-9-9-9-||
E|-2-3-2----------------------7--------------------------------------||

think th should be E|-------------------------------------------------------------------||
B|-------------------------------------------------------------------||
G|--------12-12-12--11-11-11-----------------------------------------||
D|--------12-12-12--11-11-11--9------9-9-9-9-9-9-9-9-9-9-9-9-9-9-9-9-||
A|--------10-10-10--9--9--9---9--------------------------------------||
E|-2-3-2----------------------7--------------------------------------||

I want to post or [tab]
guest
You may want to rate the tab now too:
select rating
Please do not post tabs as comments. Select "correction" instead!