Oops, an error
Loading. Please wait.
We have an official Nothing From Something tab made by UG professional guitarists. Check out the tab »
×
512 views 1 this week
no commentswrite comment
1 2 3 4 5
1 last vote to show rating
add to favorites
×
Save as Personal and add changes to this tab that will be seen only by you. Learn more ›
×
You can save this tab as Personal to edit and correct it or add notes. All changes will be seen only by you. Learn more »
launch autoscroll
font size
0
reset
guitar tuner
edit
Autoscroll
slow
fast
+/-
esc
set tempo
stop
Author
+++++++++++++++++++++++++++++++++++++++++
| The Offspring- Nothing From Something |
+++++++++++++++++++++++++++++++++++++++++

Tuning: EADG

Intro
1.
G|-------------------------------------|
D|-------------------------------------|
A|-------------------------------------|
E|-0--------0--------0--------0--------|

2.
G|------------------------------------------|
D|-2222-0000------2222--2222------0000-2222-|
A|-----------0000------------3333-----------|
E|------------------------------------------|

Verse
"Things are coming down on me..."
3.
G|------------------------------------------|
D|-2222-0000------2222--2222------0000-2222-|
A|-----------0000------------3333-----------|--x2
E|------------------------------------------|

Chorus
"Gonna break it..."
4.
G|----------------------------------------------------------------------------------------|
D|-2222-44554-0000-------2222-44554-0000-------2222-44554-0000-------2222-44554-0000------|
A|-----------------2222------------------2222------------------2222------------------0222-|
E|----------------------------------------------------------------------------------------|

Outro
5.
G|-------------------------------------|
D|-------------------------------------|
A|-------------------------------------|
E|-0--------0--------0--------0--------|

Verse
"Cut me for the lion's share..."
6.
G|------------------------------------------|
D|-2222-0000------2222--2222------0000-2222-|
A|-----------0000------------3333-----------|--x2
E|------------------------------------------|

Chorus
"Gonna break it..."
7.
G|----------------------------------------------------------------------------------------|
D|-2222-44554-0000-------2222-44554-0000-------2222-44554-0000-------2222-44554-0000------|
A|-----------------2222------------------2222------------------2222------------------0222-|
E|----------------------------------------------------------------------------------------|

Bridge
8.
G|------------------------------|
D|-2~--2-2~---------------------| For a few times...
A|------------------------------|
E|------------------------------|

9.
G|------------------------------------------|
D|-2222-0000------2222--2222------0000-2222-|
A|-----------0000------------3333-----------|--x2
E|------------------------------------------|

Chorus
"Gonna break it..."
10.
G|----------------------------------------------------------------------------------------|
D|-2222-44554-0000-------2222-44554-0000-------2222-44554-0000-------2222-44554-0000------|
A|-----------------2222------------------2222------------------2222------------------0222-|
E|----------------------------------------------------------------------------------------|

Outro
11.
G|---------------------------------------------|
D|---------------------------------------------|
A|---------------------------------------------|
E|-3-3-3-3-3-3-3-3-5-5-5-5-5-5-5-5-0~----------|

Lyrics:

Things are coming down on me
They never seem to let it be
It seems like everything I say just starts another fight
The pressure's building up inside
I gotta let it out tonight
Shattered glass will cure my ills and make me feel alright

Gonna break it
And never stop running
Making nothing from something
Making nothing from something

Cut me for the lion's share
It's mindless, but I don't care
'Cause no matter what I say
I'm in another fight
Take more shit, I've had enough
Tonight I'm gonna rip it up
Broken windows cure my ills and make me feel alright

+++++++++++++++++++++++++++++++++
| RaiLeff                       |
| Underground__Dora@Hotmail.Com |
+++++++++++++++++++++++++++++++++
Suggest correction
Creating personal tab
Creating personal tab
You can edit any tab online and save it as your Personal.

You can edit, replace or remove any tab part or add personal notes – all changes will be seen only by you.

Personal tabs can be accessed anytime from any device, even offline.
Learn more »
Give kudos to tab author, rate the tab!
1 2 3 4 5
comments
print report bad tab
guest
You may want to rate the tab now too:
select rating
Wanna post a correction for this tab? Suggest correction