Oops, an error
Loading. Please wait.
We have an official Nothingtown tab made by UG professional guitarists. Check out the tab »
×
7,022 views 6 this week
1 commentread comment
1 2 3 4 5
x 8
add to favorites
×
Save as Personal and add changes to this tab that will be seen only by you. Learn more ›
×
You can save this tab as Personal to edit and correct it or add notes. All changes will be seen only by you. Learn more »
launch autoscroll
font size
0
reset
guitar tuner
edit
Autoscroll
slow
fast
+/-
esc
set tempo
stop
Author
++++++++++++++++++++++++++++++
| The Offspring- Nothingtown |
++++++++++++++++++++++++++++++


"Just the two of us in Nothingtown..."

Tuning: EADG



Intro
1.
G|----------------------------------|
D|----------------------------------|
A|---------77-766-644-422-200-022-2-|
E|----------------------------------|

2.
G|-----------------------------------|
D|-----------------------------------|
A|-7-7-7-7-7-7-7-0h2-7-7-7-7-7-7-777-|
E|-----------------------------------|

Verse
"Lets make this complicated..."
3.
G|-------------------------------------------------------------------------|
D|-------------------------------------------------------------------------|
A|-7-7-7-7-7-7-7-777-4-4-4-4-4-4-4-444-0-0-0-0-0-0-0-000-2-2-2-2-2-2-2-222-|--x2
E|-------------------------------------------------------------------------|

Chorus
"Why oh why, are we starting up and going down?"
4.
G|-----------------------------------------------------------------|
D|-------2-1---1-4-2-2-1-1---------------2-1---1-4-2-2-1-1---------|
A|-0-0-4-----2-------------4-4-2-2-0-0-4-----2-------------4-4-2-2-|
E|-----------------------------------------------------------------|

"Our superhero play..."
5.
G|-------------------------------------------------|
D|-------------------------------------2-----1-4-1-|
A|-0-0-0-0-2-2-2-2---------4-4-2-2-0-4---0-2-------|
E|-----------------4-4-4-4-------------------------|

Outro
6.
G|-----------------------------------|
D|-2-22122----------2-22122----------|
A|--------24-442442---------2~2~2~2~-|
E|-----------------------------------|

Verse
"These cities streets are burning..."
7.
G|-------------------------------------------------------------------------|
D|-------------------------------------------------------------------------|
A|-7-7-7-7-7-7-7-777-4-4-4-4-4-4-4-444-0-0-0-0-0-0-0-000-2-2-2-2-2-2-2-222-|--x2
E|-------------------------------------------------------------------------|

Chorus
"Why oh why, are we starting up and going down?"
8.
G|-----------------------------------------------------------------|
D|-------2-1---1-4-2-2-1-1---------------2-1---1-4-2-2-1-1---------|
A|-0-0-4-----2-------------4-4-2-2-0-0-4-----2-------------4-4-2-2-|
E|-----------------------------------------------------------------|

"Our superhero play..."
9.
G|-----------------------------------------------------------------|
D|-------------------------------------2-----1-4-1-----2-----1-4-1-|
A|-0-0-0-0-2-2-2-2---------4-4-2-2-0-4---0-2-------0-4---0-2-------|
E|-----------------4-4-4-4-----------------------------------------|

"Hold on tighter, with my lighter shining through..."
10.
G|-----------------|
D|-----------------|
A|-0-0-0-0-2-2-2-2-|
E|-----------------|

Outro
11.
G|-----------------------------------|
D|-2-22122----------2-22122----------|
A|--------24-442442---------2~2~2~2~-|
E|-----------------------------------|

Bridge
12.
G|-------------------------------------------------------------------------------4-1-----|
D|-2-2-2/444-44/666-66666------------------------7-7-7\666-6\444-4\222-2-------------4-2-|
A|------------------------4-4-4/666-66/777-77777-------------------------2-2-2-2---------|
E|---------------------------------------------------------------------------------------|

13.
G|-------------------------------------------------------------------------|
D|-------------------------------------------------------------------------|
A|-7-7-7-7-7-7-7-777-4-4-4-4-4-4-4-444-0-0-0-0-0-0-0-000-2-2-2-2-2-2-2-222-|
E|-------------------------------------------------------------------------|

14.
G|--------------------------------------------------------|
D|--------------------------------------------------------|
A|--------------4-44x--------0-00x--------2-2-2-2-2-2-2-2-|
E|-0-00x--------------------------------------------------|

Chorus
"Why oh why, are we starting up and going down?"
15.
G|-----------------------------------------------------------------|
D|-------2-1---1-4-2-2-1-1---------------2-1---1-4-2-2-1-1---------|
A|-0-0-4-----2-------------4-4-2-2-0-0-4-----2-------------4-4-2-2-|
E|-----------------------------------------------------------------|

"Our superhero play..."
16.
G|-----------------------------------------------------------------|
D|-----------------------------------------------------2-----1-4-1-|
A|-0-0-0-0-2-2-2-2---------4-4-2-2-0-0-0-0-2-2-2-2-0-4---0-2-------|
E|-----------------4-4-4-4-----------------------------------------|

"Hold on tighter, with my lighter shining through..."
17.
G|-2-2-2-2-4-4-4-4-|
D|-----------------|
A|-----------------|
E|-----------------|

Outro
18.
G|-------------------------------------------------------------------|
D|-------------------------------------------------------------------|
A|-77-766-644-422-200-022-2-7-7-7-7-77-766-644-422-200-022-2-7-7-7-7-|
E|-------------------------------------------------------------------|

"Still stuck in nothingtown..."
19.
G|----------------------------------|
D|----------------------------------|
A|-77-766-644-422-200-022-2-7-7-7-7-|
E|----------------------------------|

20.
G|------------------------------------------|
D|------------------------------------------|
A|-7~---6~---4~---2~---0~---2~--------------|
E|--------------------------------0~--------|



Lyrics:


Let’s make this complicated
Thinking is overrated
We’re busting out
Of this shitty little town

Green grass and colored lenses
Tear down these picket fences
Burn in our beds
While the city lies sleeping

Why oh why? Are we starting up and going down?
My oh my, just the two of us in Nothingtown
Our superhero play, we’ll leave this town today
Hold on tighter with my lighter shining through

These city streets are burning
Rose red your wheels are turning
Make me believe
Someday we could really leave

Blindfold a new direction
Stop asking better questions
Don’t figure out
That we’re never getting out

And I’ll row it if you steer it
I’ll yell until you hear it

Still stuck in Nothingtown
Come on let’s go



+++++++++++++++++++++++++++++++++
| RaiLeff                       |
| Underground__Dora@Hotmail.Com |
+++++++++++++++++++++++++++++++++

            
            
Suggest correction
Creating personal tab
Creating personal tab
You can edit any tab online and save it as your Personal.

You can edit, replace or remove any tab part or add personal notes – all changes will be seen only by you.

Personal tabs can be accessed anytime from any device, even offline.
Learn more »
comments
print report bad tab
1 comment total.
0 reply
jordanbeth 51 Mar 08, 2009 01:12 AM

great tab sounds perfect =D x

guest
You may want to rate the tab now too:
select rating
Wanna post a correction for this tab? Suggest correction