Oops, an error
Loading. Please wait.

Original Prankster Tab

version 2
version 2
10,683 views 1 this week
5 commentsread comments
1 2 3 4 5
x 14
add to favorites
launch autoscroll
font size
0
reset
how to read this tab
guitar tuner
backing track
0:00
0:00
×
Best way to learn
"Original Prankster"
Autoscroll
slow
fast
+/-
esc
set tempo
stop
Author
Song title: Original prankster
Band: offspring
By: Harry Irving
This is almost exactly how it's played.
[--------------------------------------------------
[--------------------------------------------------
[--------------------------------------------------
[-----------------------2--------------------------
[--0-0-3--0-0--0-0-3-0---0-3-0--0-0-3-0-0--5--0-1--
[--------------------------------------------------

Continued

[--------------------------------------------------
[--------------------------------------------------
[--------------------------------------------------
[----------2---------------------------------------
[--------------------------------------------------
[--0-0-3-0---0-6-5-5-3-5-3-------------------------

continued part repeated.

I'm working on the rest of the song. The rest will be coming
soon.

Suggest correction
comments
print report bad tab
5 comments total. Showing first comments.
0 reply
sk8-GlObE#7 0 May 13, 2002 08:00 PM

the easiest way to play it is in version 3... check it out!!!

0 reply
sk8-GlObE#7 0 May 13, 2002 08:00 PM

intro ver. 3 that is

-1 reply
fuzzey82 0 Feb 11, 2003 07:00 PM

k your tab is crap

it goes like this

--------------------------------------------
-------------------------------------------------
------------------------------------------------
--------------------------------------------------
----------------------------------------7--------
---55-8-55----------------55-8-5-----5-8-5

--------------------------------------------
--------------------------------------------
--------------------------------------------
--------------------------------------------
---------------7----5-5-5-----5----------
---5-5-8-5-----5----------8-----8--------

guest
You may want to rate the tab now too:
select rating
Wanna post a correction for this tab? Suggest correction