Oops, an error
Loading. Please wait.
We have an official Pretty Fly For A White Guy tab made by UG professional guitarists. Check out the tab »
×
813 views 1 this week
no commentswrite comment
1 2 3 4 5
2 more votes to show rating
add to favorites
×
Save as Personal and add changes to this tab that will be seen only by you. Learn more ›
×
You can save this tab as Personal to edit and correct it or add notes. All changes will be seen only by you. Learn more »
launch autoscroll
font size
0
reset
guitar tuner
backing track
0:00
0:00
edit
Autoscroll
slow
fast
+/-
esc
set tempo
stop
Author
++++++++++++++++++++++++++++++++++++++++++++++++++++
| The Offspring- Pretty Fly (For A White Guy) LIVE |
++++++++++++++++++++++++++++++++++++++++++++++++++++


This is the live version from the Happy Hour CD


"Uno dos tres cuatro cinco cinco seis..."


Tuning: EADG


Intro
1.
G|--------------------------------------------------------------------------|
D|---------------1-----------------1-----------------1------------------1---|
A|-1--1-----1--1---4-1--1-----1--1---4-1--1-----1--1---4-1--1-----1x--1---4-|
E|------1-4---------------1-4---------------1-4---------------1-4-----------|

Verse
"You know its kinda hard just to get along today..."
2.
G|--------------------------------------------------------------------------|
D|---------------1-----------------1-----------------1------------------1---|
A|-1--1-----1--1---4-1--1-----1--1---4-1--1-----1--1---4-1--1-----1x--1---4-|
E|------1-4---------------1-4---------------1-4---------------1-4-----------|

Chorus
"So dont debate, a player straight..."
3.
G|--------------------------------------------------|
D|-------2h3-2h3-------2h3-2h3-------------1~-------|
A|-1~--1---------1~--1---------4~--4---4~------4~---|
E|-----------------------------------4------------4-|

"He's gonna play the field..."
4.
G|-------------------------------------------------------|
D|-------2h3-2h3-------2h3-2h3-------------------1h2p1---|
A|-1~--1---------1~--1---------4~--4---4-4h6~--4---------|
E|-----------------------------------4-----------------4-|

"So if you dont rate..."
5.
G|--------------------------------------------------|
D|-------2h3-2h3-------2h3-2h3-------------1~-------|
A|-1~--1---------1~--1---------4~--4---4~------4~---|
E|-----------------------------------4------------4-|

"The world needs wannabe's so..."
6.
G|------------------------------------------|
D|-4~--4---4~----------------3-2-1-----1----|
A|-------4----------------1x-------4-----1x-|
E|-------------4~--4-1-4~------------4------|

Outro
"Give it to me baby..."
7.
G|--------------------------------------------------------------------------|
D|---------------1-----------------1-----------------1------------------1---|
A|-1--1-----1--1---4-1--1-----1--1---4-1--1-----1--1---4-1--1-----1x--1---4-|
E|------1-4---------------1-4---------------1-4---------------1-4-----------|

Verse
"He needs some cool tunes..."
8.
G|--------------------------------------------------------------------------|
D|---------------1-----------------1-----------------1------------------1---|
A|-1--1-----1--1---4-1--1-----1--1---4-1--1-----1--1---4-1--1-----1x--1---4-|
E|------1-4---------------1-4---------------1-4---------------1-4-----------|

Chorus
"So dont debate, a player straight..."
9.
G|--------------------------------------------------|
D|-------2h3-2h3-------2h3-2h3-------------1~-------|
A|-1~--1---------1~--1---------4~--4---4~------4~---|
E|-----------------------------------4------------4-|

"He's gonna play the field..."
10.
G|-------------------------------------------------------|
D|-------2h3-2h3-------2h3-2h3-------------------1h2p1---|
A|-1~--1---------1~--1---------4~--4---4-4h6~--4---------|
E|-----------------------------------4-----------------4-|

"So if you dont rate..."
11.
G|--------------------------------------------------|
D|-------2h3-2h3-------2h3-2h3-------------1~-------|
A|-1~--1---------1~--1---------4~--4---4~------4~---|
E|-----------------------------------4------------4-|

"The world needs wannabe's so..."
12.
G|------------------------------------------|
D|-4~--4---4~----------------3-2-1-----1----|
A|-------4----------------1x-------4-----1x-|
E|-------------4~--4-1-4~------------4------|

Bridge
"Now he's getting a tattoo..."
13.
G|---------------------------------------3~------------|
D|---------------------------------------------1~------|
A|-1x----------1x----------1x----------1-----1-----4~--|
E|-----------4-----------4-----------4-----------------|

"Friends say he's trying too hard..."
14.
G|---------------------------------------3-1---1-------|
D|-------------------------------------------3---3-1---|
A|-1x----------1x----------1x----------1-------------4-|
E|-----------4-----------4-----------4-----------------|

Outro
15.
G|--------------------------------------------------------------------------|
D|---------------1-----------------1-----------------1------------------1---|
A|-1--1-----1--1---4-1--1-----1--1---4-1--1-----1--1---4-1x-----------1---4-|
E|------1-4---------------1-4---------------1-4-----------------------------|

Chorus
"So dont debate, a player straight..."
16.
G|--------------------------------------------------|
D|-------2h3-2h3-------2h3-2h3-------------1~-------|
A|-1~--1---------1~--1---------4~--4---4~------4~---|
E|-----------------------------------4------------4-|

"He's gonna play the field..."
17.
G|-------------------------------------------------------|
D|-------2h3-2h3-------2h3-2h3-------------------1h2p1---|
A|-1~--1---------1~--1---------4~--4---4-4h6~--4---------|
E|-----------------------------------4-----------------4-|

"So if you dont rate..."
18.
G|--------------------------------------------------|
D|-------2h3-2h3-------2h3-2h3-------------1~-------|
A|-1~--1---------1~--1---------4~--4---4~------4~---|
E|-----------------------------------4------------4-|

"The world needs wannabe's so..."
19.
G|------------------------------------------------------------------------|
D|-4~--4---4~--------------4~--4---4~--------------4~--4---4~-------------|
A|-------4-----------------------4-----------------------4----------------|
E|-------------4~--4-1-4~--------------4~--4-1-4~--------------4~--4-1-4~-|

"Hey, hey, do that brand new thing..."
20.
G|-------------------|
D|----3-2-1-----1----|
A|-1x-------4-----1x-|
E|------------4------|

Please rate thanks!!


Lyrics:

You know it's kind of hard
Just to get along today
Our subject isn't cool
But he fakes it anyway
He may not have a clue
And he may not have style
But everything he lacks
Well he makes up in denial

So don't debate, a player straight
You know he really doesn't get it anyway
He's gonna play the field, and keep it real
For you no way, for you no way
So if you don't rate, just overcompensate
At least you'll know you can always go on Ricki Lake
The world needs wannabe's
So do that brand new thing

He needs some cool tunes
Not just any will suffice
But they didn't have Ice Cube
So he bought Vanilla Ice
Now cruising in his Pinto, he sees homies as he pass
But if he looks twice
They're gonna kick his lily ass

Now he's getting a tattoo
He's gettin' ink done
He asked for a '13', but they drew a '31'
Friends say he's trying too hard
And he's not quite hip
But in his own mind
He's the dopest trip

The world needs wannabe's
The world loves wannabe's
So let's get some more wannabe's
And do that brand new thing

+++++++++++++++++++++++++++++++++
| RaiLeff                       |
| Underground__Dora@Hotmail.Com |
+++++++++++++++++++++++++++++++++
Suggest correction
Creating personal tab
Creating personal tab
You can edit any tab online and save it as your Personal.

You can edit, replace or remove any tab part or add personal notes – all changes will be seen only by you.

Personal tabs can be accessed anytime from any device, even offline.
Learn more »
Give kudos to tab author, rate the tab!
1 2 3 4 5
comments
print report bad tab
guest
You may want to rate the tab now too:
select rating
Wanna post a correction for this tab? Suggest correction