Oops, an error
Loading. Please wait.
We have an official Rise And Fall tab made by UG professional guitarists. Check out the tab »
×
2,742 views 3 this week
1 commentread comment
1 2 3 4 5
x 4
add to favorites
×
Save as Personal and add changes to this tab that will be seen only by you. Learn more ›
×
You can save this tab as Personal to edit and correct it or add notes. All changes will be seen only by you. Learn more »
launch autoscroll
font size
0
reset
how to read this tab
guitar tuner
backing track
0:00
0:00
edit
Autoscroll
slow
fast
+/-
esc
set tempo
stop
Author
Tabbers playing skills
intermediate +
Band: The Offspring
Song: Rise and Fall
Album: Rise and Fall, Rage and Grace
Tabbed by: Crazylegs11 (matt.mcclintock.mcclintock@gmail.com)
----------------------------------------------------------------------------
Tuning: Standard
Difficulty: Novice/Intermediate
Notation | /  slide up
         | \  slide down
         | h  hammer-on
         | p  pull-off
         | ~  vibrato
         | +  harmonic
         | x  Mute note
         | b  Bend
         | r  Release
----------------------------------------------------------------------------

Intro x2

e|---------------------------------|
b|---------------------------------|
g|---------777-----777-----999-----|
d|-5557777-7777777-7777777-9997777-|
a|-5557777-5557777-5557777-7777777-|
E|-3335555----5555----5555----5555-|

Verse

e|-------------------------------------------------------------|
b|-------------------------------------------------------------|
g|-------7---------7----999----------7---------7----999--------|
d|-5557--7-7--5-7--7-777999777-5557--7-7--5-7--7-777999777-5-5-|
a|-5557--5-7--5-7--5-777777777-5557--5-7--5-7--5-777777777-5-5-|
E|-3335----5--3-5----555---555-3335----5--3-5----555---555-3-3-|

Chorus

e|-----------------------------------------------------------------|
b|-----------------------------------------------------------------|
g|-7777777777777777----------------9999999999999999----------------|
d|-7777777777777777777777777777777799999999999999997777777777777777|
a|-5555555555555555777777777777777777777777777777777777777777777777|
E|-----------------5555555555555555----------------5555555555555555|

e|--------------------------------------------------|
b|--------------------------------------------------|
g|-7777777777777777----------------9999999999999999-|
d|-7777777777777777777777777777777799999999999999997|
a|-5555555555555555777777777777777777777777777777777|
E|-----------------5555555555555555----------------5|

Play Intro x2

e|---------------------------------|
b|---------------------------------|
g|---------777-----777-----999-----|
d|-5557777-7777777-7777777-9997777-|
a|-5557777-5557777-5557777-7777777-|
E|-3335555----5555----5555----5555-|

Verse

e|-------------------------------------------------------------|
b|-------------------------------------------------------------|
g|-------7---------7----999----------7---------7----999--------|
d|-5557--7-7--5-7--7-777999777-5557--7-7--5-7--7-777999777-5-5-|
a|-5557--5-7--5-7--5-777777777-5557--5-7--5-7--5-777777777-5-5-|
E|-3335----5--3-5----555---555-3335----5--3-5----555---555-3-3-|

Chorus

e|-----------------------------------------------------------------|
b|-----------------------------------------------------------------|
g|-7777777777777777----------------9999999999999999----------------|
d|-7777777777777777777777777777777799999999999999997777777777777777|
a|-5555555555555555777777777777777777777777777777777777777777777777|
E|-----------------5555555555555555----------------5555555555555555|

e|--------------------------------------------------|
b|--------------------------------------------------|
g|-7777777777777777----------------9999999999999999-|
d|-7777777777777777777777777777777799999999999999997|
a|-5555555555555555777777777777777777777777777777777|
E|-----------------5555555555555555----------------5|

Pre Solo

e|----------------------|
b|----------------------|
g|---7---5----999-------|
d|-5-7-5-5-7779997775-5-|
a|-5-5-5-7-7777777775-5-|
E|-3---3---555---5553-3-|

Solo (Not positive about this)

e|----------------------------------------------------------------------|
b|----------------------------------------------------------------------|
g|----------------------------------------------------------------------|
d|----------------------------------------------------------------------|
a|-------------12-------12-14-11-14-16b17-16-14-16b17-16b17-16b17-16b17-|
E|-10101010-14----12-14-------------------------------------------------|

e|---------------------------------------------------------------|
b|---------------------------------------------------------------|
g|-------------14------14-16-13-16-17b18-17b18-17b18-17b18r17-14-|
d|-12121212-16---14-16-------------------------------------------|
a|---------------------------------------------------------------|
E|---------------------------------------------------------------|

Post Solo

e|-------------------------------------------------------|
b|-------------------------------------------------------|
g|---7---5----999-------------777------777------999------|
d|-5-7-5-5-777999777-555-7777-777-7777-777-7777-999-7777-|
a|-5-5-5-7-777777777-555-7777-555-7777-555-7777-777-7777-|
E|-3---3---555---555-333-5555-----5555-----5555-----5555-|

Verse x3

e|------------------|
b|------------------|
g|------7----999----|
d|-5557-7-777999777-|
a|-5557-5-777777777-|
E|-3335---555---555-|

Pre Chorus

e|-------|
b|-------|
g|-------|
d|-5-5-5-|
a|-5-5-5-|
E|-3-3-3-|

Chorus

e|-----------------------------------------------------------------|
b|-----------------------------------------------------------------|
g|-7777777777777777----------------9999999999999999----------------|
d|-7777777777777777777777777777777799999999999999997777777777777777|
a|-5555555555555555777777777777777777777777777777777777777777777777|
E|-----------------5555555555555555----------------5555555555555555|

e|--------------------------------------------------|
b|--------------------------------------------------|
g|-7777777777777777----------------9999999999999999-|
d|-7777777777777777777777777777777799999999999999997|
a|-5555555555555555777777777777777777777777777777777|
E|-----------------5555555555555555----------------5|

Outro

e|----------------------------------------------------------------|
b|----------------------------------------------------------------|
g|---7---5----999-------------777------777------999-----------7---|
d|-5-7-5-5-777999777-555-7777-777-7777-777-7777-999-7777-5557-7-7-|
a|-5-5-5-7-777777777-555-7777-555-7777-555-7777-777-7777-5557-5-7-|
E|-3---3---555---555-333-5555-----5555-----5555-----5555-3335---5-|

Hope you enjoy, feel free to make any changes that are need, especially in the solo, 
the part I'm least sure about.

            
            
Suggest correction
Creating personal tab
Creating personal tab
You can edit any tab online and save it as your Personal.

You can edit, replace or remove any tab part or add personal notes – all changes will be seen only by you.

Personal tabs can be accessed anytime from any device, even offline.
Learn more »
comments
print report bad tab
1 comment total.
0 reply
joshybeanes 10 Apr 30, 2017 04:36 PM

Perfectly accurate tab... Thank you so much

guest
You may want to rate the tab now too:
select rating
Wanna post a correction for this tab? Suggest correction